Regurgitator - Fat Cop Chords & Tabs

 

Fat Cop Chords & Tabs

Regurgitator Chords & Tabs

Version: 1 Type: Tab 0 ratings
1 star 2 stars 3 stars 4 stars 5 stars
comments

Fat Cop Tab

-------------------------------------------------------------------------------			                                 Fat Cop
                              REGURGITATOR
                        Tabbed By: Rebecca Chen
-------------------------------------------------------------------------------

INTRO:

e|---------------------------------------------------------------------------|
B|---------------------------------------------------------------------------|
G|---------------------------------------------------------------------------|
D|-2-4-4--5-----2-4-5--7-----2-7-7-5----Pm..-2-4-4-5-5-2--2------------------|
A|-2-4-4--5-----2-4-5--7-----2-7-7-5---------2-4-4-5-5-2--2------------------|
E|-0-2-2--3-----0-2-3--5-----0-5-5-3---------0-2-2-3-3-0--0------------------|

VERSE: (Same as Intro)

PRE-CHORUS:
[ Tab from: http://www.guitartabs.cc/tabs/r/regurgitator/fat_cop_tab.html ]
e|---------------------------------------------------------------------------|
B|---------------------------------------------------------------------------|
G|---------------------------------------------------------------------------|
D|--16-16-14-13---16--Pm..16-16-16-16--16-14-13------------------------------|
A|--16-16-14-13---16------16-16-16-16--16-14-13------------------------------|
E|--14-14-12-11---14------14-14-14-14--14-12-11------------------------------|

CHORUS:

e|---------------------------------------------------------------------------|
B|---------------------------------------------------------------------------|
G|---------------------------------------------------------------------------|
D|-9-9-9-9--8-8-8-8--8--12-12-12-12--14-14-14-14--14-------------------------|
A|-9-9-9-9--8-8-8-8--8--12-12-12-12--14-14-14-14--14-------------------------|
E|-7-7-7-7--6-6-6-6--6--10-10-10-10--12-12-12-12--12-------------------------|

===============================================================================

That's basically it... it aint intirely correct i gotta admit, but its sounds ok.
Listen to the song for the proper rythem.

Questions, comments, email me at taxi-gurl@mbox.com.au
Comments