Regurgitator - Black Bugs Chords & Tabs

 

Black Bugs Chords & Tabs

Regurgitator Chords & Tabs

Version: 1 Type: Tab 0 ratings
1 star 2 stars 3 stars 4 stars 5 stars
comments

Black Bugs Tab

Black Bugs by Regurgitator
Album: UNIT
Songwriter: Ben "The Giraffe" Ely

Ah, what a great song.

Guitar:
Intro/verse:
|---------------------------------|
|---------------------------------|
|--8-8-8-8-8-8/-4--4-4-4-4-4-4-4--|
|--8-8-8-8-8-8/-4--4-4-4-4-4-4-4--|
|--6-6-6-6-6-6/-2--2-2-2-2-2-2-2--|
|---------------------------------|
With slight variation in strumming pattern

Chorus:
|------------------------------------------------------------------------------|
|------------------------------------------------------------------------------|
|--6-6-6-6-6-6-6-6/8-8-8-8-8-8-8-8/11-11-11-11-11-11-11-11-11-11-11-11-11------|
|--6-6-6-6-6-6-6-6/8-8-8-8-8-8-8-8/11-11-11-11-11-11-11-11-11-11-11-11-11-9-9--|
|--4-4-4-4-4-4-4-4/6-6-6-6-6-6-6-6/9 -9 -9 -9 -9 -9 -9 -9 -9 -9 -9 -9 -9 -9-9--|
|-------------------------------------------------------------------------7-7--|
[ Tab from: http://www.guitartabs.cc/tabs/r/regurgitator/black_bugs_tab.html ]
|-----------------------------------------------------------------|
|-----------------------------------------------------------------|
|--6-6-6-6-6-6-6-6/8-8-8-8-8-8-8-8---------------------------4-4--|
|--6-6-6-6-6-6-6-6/8-8-8-8-8-8-8-8-4-4-4-4-4-4-4-4-4-4-4-4-4-4-4--|
|--4-4-4-4-4-4-4-4/6-6-6-6-6-6-6-6-4-4-4-4-4-4-4-4-4-4-4-4-4-2-2--|
|----------------------------------2-2-2-2-2-2-2-2-2-2-2-2-2------|

Keyboard solo:
|--14-12-10----------------------------|--14-12-10--------------------16----16---|
|-----------12--12-12-14-14-14---------|-----------12--12-12-14-12-------14----14|
|---------------------------------13-13|---------------------------13------------|
|--------------------------------------|-----------------------------------------|
|--------------------------------------|-----------------------------------------|
|--------------------------------------|-----------------------------------------|

|--14-12-10----------------------------|--14-12-10--------------16~~~~~~|
|-----------12--12-12-14-14-14---------|-----------12--12-12-14---------|
|---------------------------------13-13|--------------------------------|
|--------------------------------------|--------------------------------|
|--------------------------------------|--------------------------------|
|--------------------------------------|--------------------------------|
(obviously not written in perfect time)

Criticize J.P. at happyqbert@hotmail.com
Comments