Regurgitator - Black Bugs Chords & Tabs

 

Black Bugs Chords & Tabs

Regurgitator Chords & Tabs

Version: 2 Type: Bass Tab 0 ratings
1 star 2 stars 3 stars 4 stars 5 stars
comments

Black Bugs Bass Tab

REGURGITATOR - "Black Bugs" - Bass Tab

Standard Tuning(EADG)
Common Time(4/4)

Verse/Keyboard Solo:
|------------------|------------------|
|*-1-1-1-0---------|-----------------*|
|*---------1-1-1-1-|-2-2-2-2-2-0-1-2-*|
|------------------|------------------|
   1 & 2 & 3 & 4 &   1 & 2 & 3 & 4 &
[ Tab from: http://www.guitartabs.cc/tabs/r/regurgitator/black_bugs_btab_ver_2.html ]
Chorus/End:
|------------------|-----------------|-----------------|
|*-----------------|-1-1-1-1-1-1-1-1-|-----------------|
|*-4-4-4-4-4-4-4-4-|-----------------|-----------------|
|------------------|-----------------|-2-2-2-2-2-2-2-2-|
   1 & 2 & 3 & 4 &   1 & 2 & 3 & 4 &   1 & 2 & 3 & 4 &

|------------------|
|-----------------*|
|-----------------*|
|-2-2-2-2-2-2-2-2--|
  1 & 2 & 3 & 4 &

By: Johari Taylor
E-mail: viking@powerup.com.au
Comments