Regine Velasquez - Kailangan Koy Ikaw Chords & Tabs

 

Kailangan Koy Ikaw Chords & Tabs

Regine Velasquez Chords & Tabs

Version: 2 Type: Tab 0 ratings
1 star 2 stars 3 stars 4 stars 5 stars
comments

Kailangan Koy Ikaw Tab

   
INTRO:

               C9                      G6/B
--3---1---0-- -----------0-----0----- -----------0-----0----- 
------------- --3-----3-----3-----3-- --------3-----3-----3-- 
--4---2---0-- -----0----------------- -----0-----------------
------------- ----------------------- ----------------------- 
------------- --3-------------------- --2-------------------- 
------------- ----------------------- ----------------------- 

  Am7sus               C6                     Dm
-----------0-----0-- ----------0-----0----- -----------1-----1----- 
--------3-----3----- -------3-----3-----3-- --------3-----3-----3-- 
-----0-------------- ----0----------------- -----2----------------- 
-------------------- ---------------------- --0-------------------- 
--0----------------- ---------------------- ----------------------- 
-------------------- --3------------------- ----------------------- 
                                                     Ka-i-la- ngan
                                                     Sa bawat
  Gsus                 C
-------------------- -----------3-----3----- ----------- 
-----------3-----3-- --------1-----1-----1-- -----1----- 
--------5-----5----- -----0----------------- -----0----- 
-----5-------------- ----------------------- -----2----- 
-------------------- --3-------------------- -----3-----
--3----------------- ----------------------- ----------- 

VERSE:
 
   ko'y    i-kaw                 di----to   sa    pi---ling   ko 
   o-------ras na                di    ka   na    ki---kita
  C9                      G6/B                    Am7sus
-----------0-----0----- -----------0-----0----- -----------0-----0----- 
--------3-----3-----3-- --------3-----3-----3-- --------3-----3-----3-- 
-----0----------------- -----0----------------- -----0----------------- 
----------------------- ----------------------- -----------------------
--3-------------------- --2-------------------- --0--------------------
----------------------- ----------------------- -----------------------

             Kailangan   kong          mada-     ma                ang pag-
                para     bang           kay      bigat             ng na-da-
  G6                      Dm                      Gsus
-----------0-----0----- -----------1-----1----- --------------------------
--------3-----3-----3-- --------3-----3-----3-- -----------3--------3-----
-----0----------------- -----2----------------- --------5--------5-----5--
----------------------- --0-------------------- -----5--------5-----------
----------------------- ----------------------- --------------------------
--3-------------------- ----------------------- --3-----------------------
[ Tab from: http://www.guitartabs.cc/tabs/r/regine_velasquez/kailangan_koy_ikaw_tab_ver_2.html ]
        ibig  mo...         (1)Sa   ba----wat                        
         ra---ma...                                       (2)o  gi----liw
  C                       Am        G/B             C7
-----------3-----1----- ------------3------------ --------------3----------
--------1-----0-----0-- --------1---3------3----- -----------1--------1----
-----0----------------- --------2-------------0-- --------3--------3-----3-
----------------------- -----2----------0-------- -----2--------2----------
--3-------------------- --0---------2------------ --3----------------------
----------------------- ------------------------- -------------------------

CHORUS:

   na----san    ka                      bakit  lu-   mi----san    ka
  F9                        G/F                      Em(7)
------------------------- --------------3---------- ----------3--------3----
-----------1--------1---- --------3-----------3---- -------0--------0-----0-
--------0--------0-----0- -----4-----4-----4-----4- ----0--------0----------
-----3--------3---------- --3---------------------- -2----------------------
------------------------- ------------------------- ------------------------
--1---------------------- ------------------------- ------------------------

                  paano  nang               puso     kong            nag-
  Am9                     Dm                         G
--------------------0-- -----------1--------1----- -------------------- 
--------1-----1-------- --------3--------3-----3-- --------0---1---3--- 
-----------4-----4----- -----2--------2----------- --------0---2---4---
-----2----------------- --0----------------------- -----0-------------- 
--0-------------------- -------------------------- -------------------- 
----------------------- -------------------------- --3-----------------

  i--------i-sa
  Csus        C              Am7         G/B
--1--------1--0----------- -------(3)----(1)-----------
--------1-----------1----- --------1-------------3-----
-----0-----------0-----0-- ------------0------0-----0--
-------------------------- -----2----------------------
--3-----------3----------- --0------------2------------
-------------------------- ----------------------------

ADLIB:

-------------- -------------------- -------------------- ------------------
----3-----5--- -------------------- ---------5---------- ----8----6------5-
-------------- --------5-----7----- ----7---------7----- ------------------
-------------- ----5--------------- -------------------- ------------------
-------------- -------------------- -------------------- ------------------
-------------- -------------------- -------------------- ------------------

------------------------- ------------------- ----------------------- 
----6----------5--6--5--- ------------------- --------5---5-------5-- 
------------------------- ---7---4---5---7--- ----7-----------7------ 
------------------------- ------------------- ----------------------- 
------------------------- ------------------- -----------------------
------------------------- ------------------- ----------------------- 

--------5-6---------
---6----------8-----
--------------------
--------------------
--------------------
--------------------
submitted by:christian
Comments