Regina Spektor - Apres Moi Chords & Tabs

 

Apres Moi Chords & Tabs

Regina Spektor Chords & Tabs

Version: 1 Type: Tab 0 ratings
1 star 2 stars 3 stars 4 stars 5 stars
comments

Apres Moi Tab

   
-------------------------------------------------------------------------------
			                          APRES MOI - Regina Spektor
-------------------------------------------------------------------------------
Tabbed by: Azapiler
Email:azapiler1@me.com

Tuning: Standard

INTRO
e|---1-1-1-1-1---1-1-1-1-1---1-1-1-1-1---1-1-1-1-1---0-0-0-0-0---3-3-3-3-3---|
B|---3-3-3-3-3---3-3-3-3-3---3-3-3-3-3---3-3-3-3-3---3-3-3-3-3---3-3-3-3-3---|
G|-------------2-----2-0-2-3-----------------------0-----------3-------------|
D|-0-----------------------------------3-------------------------------------|
A|---------------------------------------------------------------------------|
E|---------------------------------------------------------------------------|

e|---0-0-0-0-0---0-0-0-0-0---1-1-1-1-1---1-1-1-1-1---1-1---1-1---1-1---1-1---|
B|---3-3-3-3-3---2-2-2-2-2---3-3-3-3-3---3-3-3-3-3---3-3-3-3-3---3-3---3-3---|
G|-2-----------2-----------------------2-----2-0-2-3-----------3-----2-------|
D|-------------------------0-------------------------------------------------|
A|---------------------------------------------------------------------------|
E|---------------------------------------------------------------------------|

e|---0-0-0-0-0---3-3-3-3-3---0-0-0-0-0---0-0-0-0-0-|
B|---3-3-3-3-3---3-3-3-3-3---3-3-3-3-3---2-2-2-2-2-|
G|-0-----------3-----------2-----------2-----------|
D|-------------------------------------------------|
A|-------------------------------------------------|
E|-------------------------------------------------|
[ Tab from: http://www.guitartabs.cc/tabs/r/regina_spektor/apres_moi_tab.html ]
CHORUS
e|---1-1-1-1-1---1-1-1-1-1---1-1-1-1-1---1-1-1-1-1---0-0-0-0-0---3-3-3-3-3---|
B|---3-3-3-3-3---3-3-3-3-3---3-3-3-3-3---3-3-3-3-3---3-3-3-3-3---3-3-3-3-3---|
G|-------------2-----------3-----------------------0-----------3-------------|
D|-0-----------------------------------3-------------------------------------|
A|---------------------------------------------------------------------------|
E|---------------------------------------------------------------------------|

e|---5-5-5-5-5---5-5-5-5-5---1-1-1-1-1---1-1-1-1-1---1-1-1-1-1---1-1-1-1-1---|
B|---2-2-2-2-2---5-5-5-5-5---3-3-3-3-3---3-3-3-3-3---3-3-3-3-3---3-3-3-3-3---|
G|-2-----------6-----------------------2-----------3-------------------------|
D|-------------------------0-----------------------------------3-------------|
A|---------------------------------------------------------------------------|
E|---------------------------------------------------------------------------|

e|---0-0-0-0-0---3-3-3-3-3---5-5-5-5-5---5-5-5-5-5-|
B|---3-3-3-3-3---3-3-3-3-3---2-2-2-2-2---5-5-5-5-5-|
G|-0-----------3-----------2-----------6-----------|
D|-------------------------------------------------|
A|-------------------------------------------------|
E|-------------------------------------------------|

BRIDGE #1
e|---------------------------------------------------------------------------|
B|---3-3---3-3---3-3---3-3---3-3-3-3-3-3-3-3-3-3-3----3-3---3-3---3-3---3-3--|
G|-------------------2-----3------------------------------------------2------|
D|-0-----2-----3------------------------------------0-----2-----3------------|
A|---------------------------------------------------------------------------|
E|---------------------------------------------------------------------------|

e|-------------------------|
B|---3-3-3-3-3-3-3-3-3-3-3-|
G|-3-----------------------|
D|-------------------------|
A|-------------------------|
E|-------------------------|

The rest of the song will be coming in about 3 hours after this post

| /  slide up
| \  slide down
| h  hammer-on
| p  pull-off
| ~  vibrato
| +  harmonic
| x  Mute note
===============================================================================
Comments