Reg Reagan - Am I Ever Gonna See The Biff Again Chords & Tabs

 

Am I Ever Gonna See The Biff Again Chords & Tabs

Reg Reagan Chords & Tabs

Version: 1 Type: Tab 0 ratings
1 star 2 stars 3 stars 4 stars 5 stars
comments

Am I Ever Gonna See The Biff Again Tab

   
Hey this is the Song that Reg sings on the Footy show (Australia)
Fun and easy song to Play
Here it goes:

Standard tuning

Intro:Guitar 1
e----------12--14------16--12-----------16--12--------16--12---------|
B--12--14---------------------12---------------12------------12------|
G--------------------------------------------------------------------|
D--------------------------------------------------------------------|
A--------------------------------------------------------------------|
E--------------------------------------------------------------------|

e--16--12--------16--12--------16--12-----12-------------------------|
B---------12------------12-------------12----------------------------|
G--------------------------------------------------------------------|
D--------------------------------------------------------------------|
A--------------------------------------------------------------------|
E--------------------------------------------------------------------|

Pre-Verse:Guitar 2 with Flanger/effects
e--------------------------------------------------------------------|
B--------------------------------------------------------------------|
G--9-~~~----9/-------------------------------------------------------|
D--9-~~~----9/-------------------------------------------------------|
A--7-~~~----7/-------------------------------------------------------|
E--------------------------------------------------------------------|

Pre Verse: Guitar 1

e---------------------------------------------------------------------|
B---------------------------------------------------------------------|
G---1-----------------------------------------------------------------|
D---2-----x16---------------------------------------------------------|
A---2-----------------------------------------------------------------|
E---0-----------------------------------------------------------------|
Palm mute.....

Verse 1
  A/E E5
e------------------------------------------------|
B------------------------------------------------|
G--2--------2--------2--------2------------------|
D--2--------2--------2--------2----------x2------|
A--2--2-----2--2-----2--2-----2--2---------------|
E-----0--------0--------0--------0---------------|

Chorus
   A      E
e--0~~-------------------------------------------------|
B--2~~-------------------------------------------------|
G--2~~-------------------------------------------------|
D--2~~----2-2-2-2-2-2-2-2-----x2-----------------------|
A--0~~----2-2-2-2-2-2-2-2------------------------------|
E---------0-0-0-0-0-0-0-0------------------------------|
      PM  . . . . . . . .

Verse 2
  E B
e---------------------|
B---------------------|
G----4--------2-------|
D--2-4----x4--2-2--x4-|
A--2-2--------0-2-----|
E--0------------0-----|


Chorus
   A      E
e--0~~-------------------------------------------------|
B--2~~-------------------------------------------------|
G--2~~-------------------------------------------------|
D--2~~----2-2-2-2-2-2-2-2-----x2-----------------------|
A--0~~----2-2-2-2-2-2-2-2------------------------------|
E---------0-0-0-0-0-0-0-0------------------------------|
      PM  . . . . . . . .

Bridge 1( "what has it come to when a bloke ....)
   B      A   E
e--2------0---0--------------------------------------------------------|
B--4------2---0--------------------------------------------------------|
G--4------2---1--------------------------------------------------------|
D--4------2---2--------------------------------------------------------|
A--2------0---2--------------------------------------------------------|
E-------------0--------------------------------------------------------|


Chorus
   A      E
e--0~~-------------------------------------------------|
B--2~~-------------------------------------------------|
G--2~~-------------------------------------------------|
D--2~~----2-2-2-2-2-2-2-2-----x2-----------------------|
A--0~~----2-2-2-2-2-2-2-2------------------------------|
E---------0-0-0-0-0-0-0-0------------------------------|
      PM  . . . . . . . .
[ Tab from: http://www.guitartabs.cc/tabs/r/reg_reagan/am_i_ever_gonna_see_the_biff_again_tab.html ]
Verse 3
  A/E E5
e------------------------------------------------|
B------------------------------------------------|
G--2--------2--------2--------2------------------|
D--2--------2--------2--------2----------x2------|
A--0--2-----0--2-----0--2-----0--2---------------|
E--0--0-----0--0-----0--0-----0--0---------------|

Chorus
   A      E
e--0~~-------------------------------------------------|
B--2~~-------------------------------------------------|
G--2~~-------------------------------------------------|
D--2~~----2-2-2-2-2-2-2-2-----x2-----------------------|
A--0~~----2-2-2-2-2-2-2-2------------------------------|
E---------0-0-0-0-0-0-0-0------------------------------|
      PM  . . . . . . . .

Gap Fill:Guitar 1
e----------12--14------16--12-----------16--12--------16--12---------|
B--12--14---------------------12---------------12------------12------|
G--------------------------------------------------------------------|
D--------------------------------------------------------------------|
A--------------------------------------------------------------------|
E--------------------------------------------------------------------|

e--16--12--------16--12--------16--12--------------------------------|
B---------12------------12-------------12----------------------------|
G--------------------------------------------------------------------|
D--------------------------------------------------------------------|
A--------------------------------------------------------------------|
E--------------------------------------------------------------------|

Bridge 2
 B      A   E
e--2------0---0--------------------------------------------------------|
B--4------2---0--------------------------------------------------------|
G--4------2---1----x2--------------------------------------------------|
D--4------2---2--------------------------------------------------------|
A--2------0---2--------------------------------------------------------|
E-------------0--------------------------------------------------------|

Chorus
   A      E
e--0~~-------------------------------------------------|
B--2~~-------------------------------------------------|
G--2~~-------------------------------------------------|
D--2~~----2-2-2-2-2-2-2-2-----x2-----------------------|
A--0~~----2-2-2-2-2-2-2-2------------------------------|
E---------0-0-0-0-0-0-0-0------------------------------|
      PM  . . . . . . . .

Bridge 3 ( am i ever gonna see the biff again x a few)
 A      E
e---------------------------------------------------|
B---------------------------------------------------|
G--22222222-----------------------------------------|
D--22222222x2----22222222-------x4------------------|
A--00000000------22222222x2-------------------------|
E----------------00000000---------------------------|
  Pm........................

Chorus/outro
   A      E
e--0~~----0-0-0-0-0-0-0-0------------------------------|
B--2~~----0-0-0-0-0-0-0-0------------------------------|
G--2~~----1-1-1-1-1-1-1-1------------------------------|
D--2~~----2-2-2-2-2-2-2-2-----x7-----------------------|
A--0~~----2-2-2-2-2-2-2-2------------------------------|
E---------0-0-0-0-0-0-0-0------------------------------|

0utro
e----------12--14------16--12-----------16--12--------16--12---------|
B--12--14---------------------12---------------12------------12------|
G--------------------------------------------------------------------|
D--------------------------------------------------------------------|
A--------------------------------------------------------------------|
E--------------------------------------------------------------------|

e--16--12--------16--12--------16--12-------12--------------------------|
B---------12------------12-------------12-------------------------------|
G-----------------------------------------------------------------------|
D-----------------------------------------------------------------------|
A-----------------------------------------------------------------------|
E-----------------------------------------------------------------------|


Well, thats pretty much it...im not sure if the title's right though....abnd im not 100% 
about the verses either.....oh well
Hope u enjoy.....
Comments