Refused - The Apollo Programme Was A Hoax Chords & Tabs

 

The Apollo Programme Was A Hoax Chords & Tabs

Refused Chords & Tabs

Version: 1 Type: Tab 0 ratings
1 star 2 stars 3 stars 4 stars 5 stars
comments

The Apollo Programme Was A Hoax Tab

Refused - The Apollo Programme Was A Hoax


Tabbed by: Erik Fischer
eMail:     reefused@web.de

Thanks to my friend Martin for making me a Refused-fan. :)


Intro:

e||-10-----10-----10-9-----9-7---7-----7-5-----5---------2---0----------|
B||-0----0--------0--0---0---0---------0-0---0-----0-----0---0----------|
G||----0---------------0-------0-----------0-----0----------------------|
D||---------------------------------------------------------------------|
A||---------------------------------------------------------------------|
E||---------------------------------------------------------------------|




Verse:

e||-10----------------7----------3--------------7------------2----------|
B||-0-----------------0----------0--------------0------------0----------|
G||---------------------------------------------------------------------|
D||---------------------------------------------------------------------|
A||---------------------------------------------------------------------|
E||---------------------------------------------------------------------|

      Petrol bombs and barricades - Anything to have our say.


e||-10----------------7-------------5--------------------7-----2--------|
B||-0-----------------0-------------0--------------------0-----0--------|
G||---------------------------------------------------------------------|
D||---------------------------------------------------------------------|
A||---------------------------------------------------------------------|
E||---------------------------------------------------------------------|

    Consequence of no choice at all - Empires rise and empires fall.


e||-10----------------5---------7-----------------3--------3--------5---|
B||-0-----------------0---------0-----------------0--------0--------0---|
G||---------------------------------------------------------------------|
D||---------------------------------------------------------------------|
A||---------------------------------------------------------------------|
E||---------------------------------------------------------------------|

    It's time to flip some coins and it's time to turn some tables.




Interlude:

e||-10-----10-----10-9-----9-7---7-----7-5-----5---------5/2-2----------|
B||-0----0--------0--0---0---0---------0-0---0-----0-----0---0-0--------|
G||----0---------------0-------0-----------0-----0---------------0------|
D||---------------------------------------------------------------------|
A||---------------------------------------------------------------------|
E||---------------------------------------------------------------------|


e||-10-----10-----10-9-----9-7---7-----7-5-----5---------5/2-2----------|
B||-0----0--------0--0---0---0---------0-0---0-----0-----0---0-0--------|
G||----0---------------0-------0-----------0-----0---------------0------|
D||---------------------------------------------------------------------|
A||---------------------------------------------------------------------|
E||---------------------------------------------------------------------|


e||-0-----2-----3-----5-0-----2-----2-----------------------------------|
B||-0-0---0-0---0-----0-0-0---0-0---------------------------------------|
G||-----0-----0-------------0-----0-------------------------------------|
D||---------------------------------------------------------------------|
A||---------------------------------------------------------------------|
E||---------------------------------------------------------------------|


e||-0-----2-----3-----5-0-----2-----2-----------------------------------|
B||-0-0---0-0---0-----0-0-0---0-0---------------------------------------|
G||-----0-----0-------------0-----0-------------------------------------|
D||---------------------------------------------------------------------|
A||---------------------------------------------------------------------|
E||---------------------------------------------------------------------|


e||-0-----2-----3-----5-7-4-----5---------------------------------------|
B||-0-0---0-0---0-----0-0-0-----0---------------------------------------|
G||-----0-----0---------------------------------------------------------|
D||---------------------------------------------------------------------|
A||---------------------------------------------------------------------|
E||---------------------------------------------------------------------|




Verse:

e||-10----------------7------------5------------------------3--------2--|
B||-0-----------------0------------0------------------------0--------0--|
G||---------------------------------------------------------------------|
D||---------------------------------------------------------------------|
A||---------------------------------------------------------------------|
E||---------------------------------------------------------------------|

      Suck on my words for a while, choke on the truth of a million dead


e||-10----------------5------------------7-------3----------3-----------|
B||-0-----------------0------------------0-------0----------0-----------|
G||---------------------------------------------------------------------|
D||---------------------------------------------------------------------|
A||---------------------------------------------------------------------|
E||---------------------------------------------------------------------|
[ Tab from: http://www.guitartabs.cc/tabs/r/refused/the_apollo_programme_was_a_hoax_tab.html ]
      There is no prestige in your title, We are after your head


e||--2--2--2--2--2--2--2--2---1--1--1--1--1--1--1--1--------------------|
B||---------------------------------------------------------------------|
G||---------------------------------------------------------------------|
D||---------------------------------------------------------------------|
A||---------------------------------------------------------------------|
E||--0--0--0--0--0--0--0--0---0--0--0--0--0--0--0--0--------------------|

      The   destruction   of  everything


e||--2--2--2--2--2--2--2--2---1--1--1--1--1--1--1--1--------------------|
B||---------------------------------------------------------------------|
G||---------------------------------------------------------------------|
D||---------------------------------------------------------------------|
A||---------------------------------------------------------------------|
E||--0--0--0--0--0--0--0--0---0--0--0--0--0--0--0--0--------------------|

      Is  the  beginning  of  something  new


e||--2--2--2--2--2--2--2--2---1--1--1--1--1--1--1--1--------------------|
B||---------------------------------------------------------------------|
G||---------------------------------------------------------------------|
D||---------------------------------------------------------------------|
A||---------------------------------------------------------------------|
E||--0--0--0--0--0--0--0--0---0--0--0--0--0--0--0--0--------------------|

              Your    new     world   is   on   fire


e||--2--2--2--2--2--2--2--2---1--1--1--1--1--1--1--1--------------------|
B||---------------------------------------------------------------------|
G||---------------------------------------------------------------------|
D||---------------------------------------------------------------------|
A||---------------------------------------------------------------------|
E||--0--0--0--0--0--0--0--0---0--0--0--0--0--0--0--0--------------------|

             And    soon      you'll    be     too


e||-0-----2-----3-----5-0-----2-----2-----------------------------------|
B||-0-0---0-0---0-----0-0-0---0-0---------------------------------------|
G||-----0-----0-------------0-----0-------------------------------------|
D||---------------------------------------------------------------------|
A||---------------------------------------------------------------------|
E||---------------------------------------------------------------------|

    Sabotage       will  set  us  free


e||-0-----2-----3-----5-0-----2-----2-----------------------------------|
B||-0-0---0-0---0-----0-0-0---0-0---------------------------------------|
G||-----0-----0-------------0-----0-------------------------------------|
D||---------------------------------------------------------------------|
A||---------------------------------------------------------------------|
E||---------------------------------------------------------------------|

    Throw a rock in   the machine


e||-0-----2-----3-----5-0-----2-----2-----------------------------------|
B||-0-0---0-0---0-----0-0-0---0-0---------------------------------------|
G||-----0-----0-------------0-----0-------------------------------------|
D||---------------------------------------------------------------------|
A||---------------------------------------------------------------------|
E||---------------------------------------------------------------------|

    Sabotage       will  set  us  free


e||-0-----2-----3-4-----10-----10-----10-9-----9-7---7------------------|
B||-0-0---0-0---0-0-----0----0--------0--0---0---0----------------------|
G||-----0-----0------------0---------------0-------0--------------------|
D||---------------------------------------------------------------------|
A||---------------------------------------------------------------------|
E||---------------------------------------------------------------------|

    Throw a rock in    the machine                Throw


e||---------------------10-----10-----10-9-----9-7---7------------------|
B||----------------------0----0-------0--0---0---0---------------------|
G||-------------------------0---------------0-------0-------------------|
D||---------------------------------------------------------------------|
A||---------------------------------------------------------------------|
E||---------------------------------------------------------------------|

          a rock in    the machine                Throw


e||---------------------10-----10-----10-9-----9-7---7------------------|
B||----------------------0----0-------0--0---0---0----------------------|
G||-------------------------0---------------0-------0-------------------|
D||---------------------------------------------------------------------|
A||---------------------------------------------------------------------|
E||---------------------------------------------------------------------|

          a rock in    the machine


e||-10-----10-----10-9-----9-7---7--------------------------------------|
B||-0----0--------0--0---0---0------------------------------------------|
G||----0---------------0-------0----------------------------------------|
D||---------------------------------------------------------------------|
A||---------------------------------------------------------------------|
E||---------------------------------------------------------------------|
Comments