Refused - Summerholidays Vs Punkroutine Chords & Tabs

 

Summerholidays Vs Punkroutine Chords & Tabs

Refused Chords & Tabs

Version: 3 Type: Tab 0 ratings
1 star 2 stars 3 stars 4 stars 5 stars
comments

Summerholidays Vs Punkroutine Tab

REFUSED - "Summer holiday vs punk routine"
The shape of punk to come
Guitar tab by c0rez (c0rez@hotmail.com)

                                    * w00f *
                     * Refused will always be in our hearts *
    * Enjoy this great song, this great album & your punk routine   :o) *


 _|Riff1______________|Riff1.1_____________
 e|-------------------|-------------------|
 B|-------------------|-------------------|
 G|11-x-11-x-x-x-11-x-|11-x-11-x-x-x-11.--|
 D|-------------------|-------------------|
 A|-------------------|-------------------|
 E|-------------------|-------------------|
 ŻŻŻŻŻŻŻŻŻŻŻŻŻŻŻŻŻŻŻŻŻŻŻŻŻŻŻŻŻŻŻŻŻŻŻŻŻŻŻŻŻŻ

 _|Riff2_______________________________________________________________
 e|----------------|----------------|----------------|----------------|
 B|----------------|----------------|----------------|----------------|
 G|1111111111111111|9-9-9-9-9-9-9-9-|7-7-7-7-7-7-7-7-|5-5-5-5-4-4-4-4-|
 D|----------------|----------------|----------------|----------------|
 A|9-9-9-9-9-9-9-9-|7-7-7-7-7-7-7-7-|5-5-5-5-5-5-5-5-|3-3-3-3-2-2-2-2-|
 E|----------------|----------------|----------------|----------------|
 ŻŻŻŻŻŻŻŻŻŻŻŻŻŻŻŻŻŻŻŻŻŻŻŻŻŻŻŻŻŻŻŻŻŻŻŻŻŻŻŻŻŻŻŻŻŻŻŻŻŻŻŻŻŻŻŻŻŻŻŻŻŻŻŻŻŻŻŻŻŻ

 _|Riff3___________________________________________________
 e|----------------|-------------------|------------------|
 B|----------------|-------------------|------------------|
 G|--9-9-9---------|--9-9-9-12-12-9-12-|--111111----------|
 D|----------------|-------------------|----------12---12-|
 A|--7-7-7---------|--7-7-7-10-10-7-10-|--9-9-9---10---10-|
 E|----------0---0-|-------------------|------------------|
 ŻŻŻŻŻŻŻŻŻŻŻŻŻŻŻŻŻŻŻŻŻŻŻŻŻŻŻŻŻŻŻŻŻŻŻŻŻŻŻŻŻŻŻŻŻŻŻŻŻŻŻŻŻŻŻŻŻŻ
 _________________________
 e|----------------------|
 B|----------------------|
 G|-----------------12---|
 D|--12-12-12-12-12------|
 A|--12-12-12-12-12-10---|
 E|--10-10-10-10-10------|
 ŻŻŻŻŻŻŻŻŻŻŻŻŻŻŻŻŻŻŻŻŻŻŻŻŻ
 _|Riff3.1_________________________________________________
 e|----------------|-------------------|------------------|
 B|----------------|-------------------|------------------|
 G|--9-9-9---------|--9-9-9-12-12-9-12-|--111111----------|
 D|----------------|-------------------|----------12---12-|
 A|--7-7-7---------|--7-7-7-10-10-7-10-|--9-9-9---10---10-|
 E|----------0---0-|-------------------|------------------|
 ŻŻŻŻŻŻŻŻŻŻŻŻŻŻŻŻŻŻŻŻŻŻŻŻŻŻŻŻŻŻŻŻŻŻŻŻŻŻŻŻŻŻŻŻŻŻŻŻŻŻŻŻŻŻŻŻŻŻ
 ________________________
 e|---------------------|
 B|---------------------|
 G|---------------------|
 D|--10-10-10-10-9-10-9-|
 A|--10-10-10-10-9-10-9-|
 E|--8--8--8--8--7-8--7-|
 ŻŻŻŻŻŻŻŻŻŻŻŻŻŻŻŻŻŻŻŻŻŻŻŻ

 _|Riff4___________________________________________________________________
 e|----------------|----------------|------------------|------------------|
 B|----------------|----------------|------------------|------------------|
 G|--9-9-9---------|--9-9-9---------|--111111----------|--111111----------|
 D|----------------|----------------|----------12---12-|----------12---12-|
 A|--7-7-7---------|--7-7-7---------|--9-9-9---10---10-|--9-9-9---10---10-|
 E|----------0---0-|----------0---0-|------------------|------------------|
 ŻŻŻŻŻŻŻŻŻŻŻŻŻŻŻŻŻŻŻŻŻŻŻŻŻŻŻŻŻŻŻŻŻŻŻŻŻŻŻŻŻŻŻŻŻŻŻŻŻŻŻŻŻŻŻŻŻŻŻŻŻŻŻŻŻŻŻŻŻŻŻŻŻŻ
 _|Riff4.1______________________________________________
 e|----------------|----------------|------------------|
 B|----------------|----------------|------------------|
 G|--9-9-9---------|--9-9-9---------|--111111----------|
 D|----------------|----------------|----------12---12-|
 A|--7-7-7---------|--7-7-7---------|--9-9-9---10---10-|
 E|----------0---0-|----------0---0-|------------------|
 ŻŻŻŻŻŻŻŻŻŻŻŻŻŻŻŻŻŻŻŻŻŻŻŻŻŻŻŻŻŻŻŻŻŻŻŻŻŻŻŻŻŻŻŻŻŻŻŻŻŻŻŻŻŻŻ
 ___________________________
 e|----------------------|--
 B|----------------------|--
 G|-----------------12---|10>
 D|--12-12-12-12-12------|--
 A|--12-12-12-12-12-10---|9>
 D|--10-10-10-10-10------|--
 ŻŻŻŻŻŻŻŻŻŻŻŻŻŻŻŻŻŻŻŻŻŻŻŻŻŻŻ
 X> fade out (natural)
[ Tab from: http://www.guitartabs.cc/tabs/r/refused/summerholidays_vs_punkroutine_tab_ver_3.html ]
 _|Riff4.2_______________________________________________________________
 e|----------------|----------------|----------------|----------------|-.
 B|----------------|----------------|----------------|----------------|-.
 G|--9-9-9---------|--9-9-9---------|--111111119-9-9-|9-7-7-7-7-5-5-4-|4.
 D|----------------|----------------|----------------|----------------|-.
 A|--7-7-7---------|--7-7-7---------|--9-9-9-9-7-7-7-|7-5-5-5-5-3-3-2-|2.
 D|----------0---0-|----------0---0-|----------------|----------------|-.
 ŻŻŻŻŻŻŻŻŻŻŻŻŻŻŻŻŻŻŻŻŻŻŻŻŻŻŻŻŻŻŻŻŻŻŻŻŻŻŻŻŻŻŻŻŻŻŻŻŻŻŻŻŻŻŻŻŻŻŻŻŻŻŻŻŻŻŻŻŻŻŻŻ

 _|Riff5_______________________________________________________________
 e|----------------|----------------|----------------|----------------|
 B|----------------|----------------|----------------|----------------|
 G|>11-------------|>9--------------|>7--------------|>5------>4------|
 D|----------------|----------------|----------------|----------------|
 A|>9--------------|>7--------------|>5--------------|>3------>2------|
 E|----------------|----------------|----------------|----------------|
 ŻŻŻŻŻŻŻŻŻŻŻŻŻŻŻŻŻŻŻŻŻŻŻŻŻŻŻŻŻŻŻŻŻŻŻŻŻŻŻŻŻŻŻŻŻŻŻŻŻŻŻŻŻŻŻŻŻŻŻŻŻŻŻŻŻŻŻŻŻŻ
 >x Fade in (volume control)

 _|Riff6_____________________________________________________________________
 e|-----------------------|----------------|----------------|---------------|
 B|-----------------------|----------------|----------------|---------------|
 G|11-11-11-11-11-11-11-5-|5-5-5-5-5-5-5-7-|7-7-7-7-7-7-7-7-|7-7-7-7-7-7-7-7|
 D|12-12-12-12-12-12-12-7-|7-7-7-7-7-7-7-7-|7-7-7-7-7-7-7-7-|7-7-7-7-7-7-7-7|
 A|-----------------------|----------------|----------------|---------------|
 E|-----------------------|----------------|----------------|---------------|
 ŻŻŻŻŻŻŻŻŻŻŻŻŻŻŻŻŻŻŻŻŻŻŻŻŻŻŻŻŻŻŻŻŻŻŻŻŻŻŻŻŻŻŻŻŻŻŻŻŻŻŻŻŻŻŻŻŻŻŻŻŻŻŻŻŻŻŻŻŻŻŻŻŻŻŻŻ

 _|Riff7_______________________________
 e|----------------|----------------|0>
 B|----------------|----------------|x>
 G|5---------------|7---------------|9>
 D|5---------------|7---------------|9>
 A|x---------------|x---------------|x>
 E|0---------------|0---------------|0>
 ŻŻŻŻŻŻŻŻŻŻŻŻŻŻŻŻŻŻŻŻŻŻŻŻŻŻŻŻŻŻŻŻŻŻŻŻŻŻ
 _|Riff8________________________________________________________________
 e|----------------|----------------|-----------------|----------------|
 B|----------------|----------------|-----------------|----------------|
 G|----------------|----------------|(7(7-7-7-7-7-7-7-|5-5-5-5-4-4-4.--|
 D|----------------|----------------|(7(7-7-7-7-7-7-7-|5-5-5-5-4-4-4.--|
 A|----------------|----------------|(5(5-5-5-5-5-5-5-|3-3-3-3-2-2-2.--|
 E|----------------|----------------|-----------------|----------------|
 ŻŻŻŻŻŻŻŻŻŻŻŻŻŻŻŻŻŻŻŻŻŻŻŻŻŻŻŻŻŻŻŻŻŻŻŻŻŻŻŻŻŻŻŻŻŻŻŻŻŻŻŻŻŻŻŻŻŻŻŻŻŻŻŻŻŻŻŻŻŻŻ
 (x Palm mutted

 _________________________________________________________________________
 Guitar1: [Riff1]x4[Riff1]x4[Riff1]x4[Riff1]x4[Riff1]x4[Riff1]...[Riff1.1]
 Guitar2:          [_Riff2_][_Riff2_][_Riff2_][_Riff2_]                   
 Other:                                                (      voices     )
 ŻŻŻŻŻŻŻŻŻŻŻŻŻŻŻŻŻŻŻŻŻŻŻŻŻŻŻŻŻŻŻŻŻŻŻŻŻŻŻŻŻŻŻŻŻŻŻŻŻŻŻŻŻŻŻŻŻŻŻŻŻŻŻŻŻŻŻŻŻŻŻŻŻ
 ____________________________________________________________
               [Riff1]x4[Riff1][Riff1][Riff1][Riff1.1]       
 [Riff3][Riff3]         [___________Riff2____________]       
               (               voices                )(Drums)
 ŻŻŻŻŻŻŻŻŻŻŻŻŻŻŻŻŻŻŻŻŻŻŻŻŻŻŻŻŻŻŻŻŻŻŻŻŻŻŻŻŻŻŻŻŻŻŻŻŻŻŻŻŻŻŻŻŻŻŻŻ
 ____________________________________________________________________
 [Riff3][Riff3][Riff3][Riff3.1][Riff4][Riff4][Riff4][Riff4.1][...    
 [Riff3][Riff3][Riff3][Riff3.1]              [Riff5][_Riff5_]        
 (Rather be forgotten...    :o)                              (Bass...
 ŻŻŻŻŻŻŻŻŻŻŻŻŻŻŻŻŻŻŻŻŻŻŻŻŻŻŻŻŻŻŻŻŻŻŻŻŻŻŻŻŻŻŻŻŻŻŻŻŻŻŻŻŻŻŻŻŻŻŻŻŻŻŻŻŻŻŻŻ
 ______________________________________________________________________
 ...[Riff1][Riff1.1][Riff1]x4[Riff1]x4[Riff1]x4[Riff1]x4[Riff7]...     
                    [_Riff6_][_Riff6_][_Riff6_][_Riff6_]               
                                                               (Bass...
 ŻŻŻŻŻŻŻŻŻŻŻŻŻŻŻŻŻŻŻŻŻŻŻŻŻŻŻŻŻŻŻŻŻŻŻŻŻŻŻŻŻŻŻŻŻŻŻŻŻŻŻŻŻŻŻŻŻŻŻŻŻŻŻŻŻŻŻŻŻŻ
 ______________________________________________________________
 ...Riff8][Riff3][Riff3][Riff3][Riff3.1][Riff4]x3[Riff4.2] 
 ...Riff8][Riff3][Riff3][Riff3][Riff3.1][Riff4]x3[Riff4.2] 
          (...than remembered        :o)                   
 ŻŻŻŻŻŻŻŻŻŻŻŻŻŻfor giving in ! ŻŻŻŻŻŻŻŻŻŻŻŻŻŻŻŻŻŻŻŻŻŻŻŻŻŻŻŻŻŻŻŻ


                   * Any question, any suggestion, email me *
                                 * 01/2004 *

                                   * w00f *
Comments