Refused - Refused Are Fucking Dead Chords & Tabs

 

Refused Are Fucking Dead Chords & Tabs

Refused Chords & Tabs

Version: 1 Type: Tab 0 ratings
1 star 2 stars 3 stars 4 stars 5 stars
comments

Refused Are Fucking Dead Tab

   
Band - Refused
Song - Refused Are Fucking Dead

Intro:
e|-----------------------------|
B|-----------------------------|
G|---------5-5-5---------------|
D|-5-x-x-5-0-0-x-5-5-6-6-6-6-6-|  repeat
A|-5-x-x-5-----3-5-5-6-6-6-6-6-|
E|-3-x-x-3-------3-3-4-4-4-4-4-|

e|-------------------|
B|-------------------|
G|-------------------|
D|-5-5-5-5-5-5-5-5-5-|  repeat
A|-x-x-x-x-x-x-x-x-x-|
E|-3-3-3-3-3-3-3-3-3-|

Verse:
e|--------------------------|
B|--------------------------|
G|-7-0-6-6-7-0-3-3-0-3-4-0--|
D|--------------------------| repeat
A|--------------------------|
E|--------------------------|

e|------|
B|------|
G|------|
D|-5-5--|
A|-5-5--|
E|-3-3--|

Chorus:
e|----------------|
B|----------------|
G|--2~~~~~2~~~~~--|
D|----------------|
A|----------------|
E|----------------|

Verse:
e|--------------------------|
B|--------------------------|
G|-7-0-6-6-7-0-3-3-0-3-4-0--|
D|--------------------------| repeat
A|--------------------------|
E|--------------------------|
[ Tab from: http://www.guitartabs.cc/tabs/r/refused/refused_are_fucking_dead_tab.html ]
e|--------------------------|
B|-------------6-6-6/7-0----|
G|-7-7-7-7-7-6--------------|
D|--------------------------| x4
A|--------------------------|
E|--------------------------|

e|--------------------------|
B|-------------8-8-8/9------|
G|-7-7-7-7-7-9---------9----|
D|--------------------------| x3
A|--------------------------|
E|--------------------------|

e|----------------------------------|
B|----------------------------------|
G|-7-7-7-7-9-9-9-3-3-3-3-0-0-0------|
D|-----------------------------2-3--|
A|----------------------------------|
E|----------------------------------|


Then:
e|--------------------------|
B|--------------------------|
G|-7-0-6-6-7-0-3-3-0-3-4-0--|
D|--------------------------| repeat
A|--------------------------|
E|--------------------------|

e|-------------------|
B|-------------------|
G|-------------------|
D|-5-5-5-5-5-5-5-5-5-|  repeat
A|-x-x-x-x-x-x-x-x-x-|
E|-3-3-3-3-3-3-3-3-3-|

e|--------------------------|
B|--------------------------|
G|-7-0-6-6-7-0-3-3-0-3-4-0--|
D|--------------------------| repeat
A|--------------------------|
E|--------------------------|

Chorus:
e|-5-5-5-5-5-5-5-1-1-1-1-1-1-1--|
B|-5-5-5-5-5-5-5-1-1-1-1-1-1-1--|
G|-5-5-5-5-5-5-5-2-2-2-2-2-2-2--|
D|-7-7-7-7-7-7-7-3-3-3-3-3-3-3--|
A|-7-7-7-7-7-7-7-3-3-3-3-3-3-3--|
E|-5-5-5-5-5-5-5-1-1-1-1-1-1-1--|
Comments