Refused - New Noise Chords & Tabs

 

New Noise Chords & Tabs

Refused Chords & Tabs

Version: 1 Type: Bass Tab 1 rating
1 star 2 stars 3 stars 4 stars 5 stars
comments

New Noise Bass Tab

Refused "New Noise"
>From the albuam "The Shape Of Punk To Come"
tabbed by tom tha bassist (jynx45@hotmail.com)

Guitar, synchro, and drum intro, approx. 1:08 long

Riff 1:
g|----------------------------
d|-2-2-2-2-2-2-0-2-3-2-0-3----
a|----------------------------
e|----------------------------

Riff 2a (pace slows):
g|--------------------------------------------
d|-2h---2h--2h--2-2-2---0h---0h--0h--0-0-0----
a|--------------------------------------------
e|--------------------------------------------

Riff 2b:
g|-------------------------------------------
d|-0h---0h--0h---0-0-0-----------------------
a|-----------------------2h---2h--2h---2-2-2-
e|-------------------------------------------

Riff 2b (continued)
g|----------------------------
d|----------------------------
a|-0h---0h--0h---0-0-0--------
e|----------------------------

Riff 3 (faster pace):
g|--------------
d|--------------
a|-2-2----2-2-2-
e|--------------
[ Tab from: http://www.guitartabs.cc/tabs/r/refused/new_noise_btab.html ]
Riff 4 (hold each note until next)
g|-----------------------------------
d|-------------0h--------------------
a|-2h--0h----------------------------
e|-----------------------------------

Riff 5:
g|--------
d|--------
a|-2-2----
e|--------

Riff 6:
g|-------
d|-2-----
a|-------
e|-------

Riff 7 (Even Faster):
g|---------------------------
d|-2-2---2-2-2-3h------------
a|---------------------------
e|---------------------------

guitar intro
riff 1 (x4)
guitar pause
riff 1 (x4)
quiet verse (guitar and drums only)
riff 1 (x4)
guitar pause
riff 1 (x4)
quiet verse, a bit longer than before (guitar and drums only)
(correct, pieces repeat this way, listen to the song)
Riff 2a (x5)
Riff 2b
Riff 3 (x7)
Riff 4
Riff 5
Guitar and drums set
drums and synth
Riff 6 then Guitar Solo (x4)
Riff 1 (x4)
drum solo
Riff 1 (x8)
Riff 7 (x8)
Riff 1 (x4)
let last note ring until you're sick of hearing it

PUNK LIVES ON!
think openly, keep punkin on.
-tom tha bassist

e-mail me at jynx45@hotmail.com

Comments