Refused - Everlasting Chords & Tabs

 

Everlasting Chords & Tabs

Refused Chords & Tabs

Version: 1 Type: Tab 0 ratings
1 star 2 stars 3 stars 4 stars 5 stars
comments

Everlasting Tab

#----------------------------------PLEASE NOTE--------------------------------#
#This file is the author's own work and represents their interpretation of the#
#song. You may only use this file for private study, scholarship, or research.#
#-----------------------------------------------------------------------------#

Date: Mon, 02 Mar 1998 19:48:04 +0100
From: Marcus Christensson 
Subject: TAB: Everlasting by Refused

#-----------------------------------------------------------------------------#
#-- File created with Instab - http://www.pconline.com/~smcarey/instab.html --#
#-----------------------------------------------------------------------------#

Author/Artist: Refused
Title: Everlasting
Album: Everlasting
Transcribed by: Marcus Christensson
Email: marcus.c@home.se


Everlasting - Refused

Riff1
------------------------------------------------------------------------------|
------------------------------------------------------------------------------|
------------------------------------------------------------------------------|
-2------4/5-4/5-5-5/4--2-2--2-2-----------------------------------------------|
-2------2/3-2/3-3-3/4--2-2--2-2-----------------------------------------------|
-0---------------------0-0--0-0-----------------------------------------------|
                       x x  x x

Bridge1
------------------------------------------------------------------------------|
------------------------------------------------------------------------------|
------------------------------------------------------------------------------|
-2--2--2--2-------------------------------------------------------------------|
-2--2--2--2-------------------------------------------------------------------|
-0--0--0--0-------------------------------------------------------------------|
 x  x  x  x

Fast Riff
------------------------------------------------------------------------------|
------------------------------------------------------------------------------|
------------------------------------------------------------------------------|
-2-2-2-5-5-5-5----------------------------------------------------------------|
-2-2-2-3-3-3-3----------------------------------------------------------------|
-0-0-0------------------------------------------------------------------------|
[ Tab from: http://www.guitartabs.cc/tabs/r/refused/everlasting_tab.html ]
Bridge2
------------------------------------------------------------------------------|
------------------------------------------------------------------------------|
------------------------------------------------------------------------------|
-2-2---------2-2---------2-2---------2----------------------------------------|
-2-2---------2-2---------2-2---------2-3-4------------------------------------|
-0-0---------0-0---------0-0---------0-1-2------------------------------------|
 x x         x x         x x         x x x

Riff2
------------------------------------------------------------------------------|
------------------------------------------------------------------------------|
------------------------------------------------------------------------------|
-2-2-2-2-5-5\4-5\4--2-2-2-2-7-------------------------------------------------|
-2-2-2-2-3-3\2-3\2--2-2-2-2-5-------------------------------------------------|
-0-0-0-0------------0-0-0-0---------------------------------------------------|
 x x x x            x x x x

End
------------------------------------------------------------------------------|
------------------------------------------------------------------------------|
------------------------------------------------------------------------------|
-2----------------------------------------------------------------------------|
-2----------------------------------------------------------------------------|
-0----------------------------------------------------------------------------|


Structure:

Riff1      X6
Bridge1    X1
Riff1      X4
Bridge1    X1
Fast Riff  X4
Bridge2    X1
Fast Riff  X8
Bridge2    X1
Riff2      X4  (let E ring in the end)
Riff1      X6
End        X1


Lyrics:

This one will not change - turn down that fad again.
Complacency - overcome, overdone.
Everlasting - I've won. No second chance - it's just begun.
Stuck down in convenience, tradition chosen way.
Who describes, who decides our idea of fun?
I will not become what I despise, I found a reason,
your truths are lies. Directed, attached.
Reason will overcome the bounds of conformity. We are still waiting.
Struggle to overcome generations of secondhand liars.
Struggle to overcome the past mistakes.

Not sure everything is compleately right,
it's hard to write down exactly what you play.
But it sounds fine for me.
Please mail me for corrections...

Note that the riffs changes a bit from time to time.
Also rember that the song I tabed was recorded in 1994
I've heard a better version of this song...
Please mail me if you got any other refused tabs.

Refused: a shity band with an awesome plan

I play in a band...
Come visit our homepage at http://members.xoom.com/elemental


PS. Sweden rules
Comments