Refreshments - Preachers Daughter Chords & Tabs

 

Preachers Daughter Chords & Tabs

Refreshments Chords & Tabs

Version: 1 Type: Tab 0 ratings
1 star 2 stars 3 stars 4 stars 5 stars
comments

Preachers Daughter Tab

   
Preacher's Daughter
Refreshments

D                          G
  Well I was born on the thirsty earth
D
  Showed up in Tucson,
G               A
  Fresh out of Leavenworth
D                        G
  Did my time on stale bread and dirty water
D                          G        A
  Nobody told me that the lady was a preacher's daughter

G              A
Yeah, how her arms would hold me (Lord, don't I know)
G               A
When we kissed, she never told me (Oh-oh, I know)
G           A
Lamb for a slaughter
                       D          G
Cause she's my preacher's daughter
D  G  A

D               G
Cut loose from my incarceration
D                    G          A
I paid a visit to her daddy's congregation
D                   G
"Welcome home", she said "your lookin' good too."
D                              G            A
"Meet my new husband, he's the sheriff who arrested you."

G              A
Yeah, how her arms would hold me (Lord, don't I know)
G               A
When we kissed, she never told me (Oh-oh, I know)
G           A
Lamb for a slaughter
                         D
Cause she's my preacher's daughter
    D  G
Yeah
D  G  A
D  G
D  G  A
G  A
G  A
G  A  D

D              G
So I said my congratulations
D                    G     A
For I lost myself in my infatuation
D                    G
I stole a kiss or two Just havin' fun again
D
Sheriff don't like it
G       A
Now I'm back on the run again

G        A
How her arms would hold me (Lord, don't I know)
G               A
When we kissed, she never told me (Oh-oh, I know)
G           A
Lamb for a slaughter
G                      A
Like the desert needs the water
                  D                 G
Give me back my preacher's daughter
            D         G  A
Preacher's daughter
            D        G
Preacher's daughter
            D        G
Preacher's daughter

C  G (repeat many times, very rapidly)
C  G  D


P R E A C H E R ' S  D A U G H T E R
The Refreshments


  INTRO:
||--------------------||
||--T---- Drums ------||
||--A----[  4  ]-----*||
||--B----------------*||
||--------------------||
||--------------------||

   D                         G                         D                         G           A
   Guitar I (w/dist) (Riff. A)
||-----------------|-------------------------|-------------------------|-------------------------|
||-----------------|-------------------------|---------------12--------|--h-----------p----------|
||14-----12-11-12--|-11---------12---12------|14----------------14-12--|11-12-------12-11--------|
||-----------------|-----12------------------|-------------------------|------------------14-12--|
||-----------------|-------------------------|-------------------------|-------------------------|
||-----------------|-------------------------|-------------------------|-------------------------|

|| Guitar II (w/dist) (Rhy. Fig. 1)                                                     
Rhy. Fig. 1)
||-------------------------|-------------------------|-------------------------|-----------------|
||-------------------------|-------------------------|-------------------------|-----------------|
||-7-----------------7-----|-------------------------|-7----------------7------|-----------------|
||-7-----------------7-----|-5-----------------------|-7----------------7------|-5-----------7---|
||-5-----------------5-----|-5-----------------------|-5----------------5------|-5-----------7---|
||-------------------------|-3-----------------------|-------------------------|-3-----------5---|

   D                         G                         D                         G           A
  Guitar I (w/Rhy. Fig. 1 (1 time))
|----------------|-------------------------|-------------------------|-------------------------|
|----------------|-------------------------|---------------12--------|--h-----------p----------|
|14----12-11-12--|-11---------12---12------|14----------------14-12--|11-12-------12-11---p----|
|----------------|-----12------------------|-------------------------|------------------14-12--|
|----------------|-------------------------|-------------------------|-------------------------|
|----------------|-------------------------|-------------------------|-------------------------|
                                      [mutted.]

 VERSE 1 & 2:
   D                         G                         D                         G           A
1. I was born of the thirsty earth.                   Showed  up in    Tucson,  fresh out of Leavenworth
2. Cut  loose   from   my   incarceration.            Paid a   visit to   her   daddy's   congregation
   Guitar I (w/Rhy. Fig. 1  (2 times))
|-------------------------|-------------------------|-------------------------|------------------|
|-------------------------|-------------------------|-------------------------|------------------|
|-------------------------|--------12--12---12------|-------------------------|------------------|
|-------------------------|-------------------------|-------------------------|------------------|
|-------------------------|-------------------------|-------------------------|------------------|
|-------------------------|-------------------------|-------------------------|------------------|
                                  [mutted......]
   D                         G                         D                         G           A
   Did my time on stale bread and dirty water.         Nobody    told  me  that  lady was a  Preachers
   "Welcome home" she said. "Your looking good too.    Meet my   new  husband    He's 
sherrif who arrest you".
|-------------------------|-------------------------|-------------------------|------------------|
|-------------------------|-------------------------|-------------------------|------------------|
|-------------------------|--------12--12---12------|-------------------------|------------------|
|-------------------------|-------------------------|-------------------------|------------------|
|-------------------------|-------------------------|-------------------------|------------------|
|-------------------------|-------------------------|-------------------------|------------------|
[ Tab from: http://www.guitartabs.cc/tabs/r/refreshments/preachers_daughter_tab.html ]
 CHORUS:
 daughter.
 Yeah      how      I loved       to    hold her     When     we      kissed    she    never told me
  Guitar 1.
|------------------|-------------------------|-------------------------|---------------------------|
|------------------|-------------------------|-------------------------|---------12----------------|
|14---12----11-----|12----11-----------------|14----------12----11-----|12----14----14-12-11-------|
|------------------|------------14-12-11-12--|-------------------------|---------------------1412--|
|------------------|-------------------------|-------------------------|---------------------------|
|------------------|-------------------------|-------------------------|---------------------------|

                                                      _________________
 Lamb   for  the slaughter Cause she's my preachers  [ 3.
|-------------------------|--------------------------|
|-------------------------|---------12---------------|
|14----------12----11-----|12----14----14-12-11-----*|
|-------------------------|---------------------1412*|
|-------------------------|--------------------------|
|-------------------------|--------------------------|
 daughter.

 GUITAR SOLO:
 Guitar 1.
|-------------------------|15----14----12-14-12-----|-------------------------|15----14----12----|
|------------15-----------|---------------------15--|------------15-----------|------------------|
|---14--------------------|-------------------------|---14--------------------|------------------|
|12-------12----------12--|---12--------------------|12-------12----------12--|---12-------------|
|-------------------------|-------------------------|-------------------------|------------------|
|-------------------------|-------------------------|-------------------------|------------------|
 .......................................................................................................

|-------------------------|15----14----12-14-12-----|-------------------------|15----14----12----|
|------------15-----------|---------------------15--|------------15-----------|------------------|
|---14--------------------|-------------------------|---14--------------------|------------------|
|12-------12----------12--|---12--------------------|12-------12----------12--|---12-------------|
|-------------------------|-------------------------|-------------------------|------------------|
|-------------------------|-------------------------|-------------------------|------------------|


  Yoh!
|------------------|-------------------------|-------------------------|---------------------------|
|------------------|-------------------------|-------------------------|---------12----------------|
|14---12----11-----|12----11-----------------|14----------12----11-----|12----14----14-12-11-------|
|------------------|------------14-12-11-12--|-------------------------|---------------------1412--|
|------------------|-------------------------|-------------------------|---------------------------|
|------------------|-------------------------|-------------------------|---------------------------|

|-------------------------|-------------------------|-------------------------|
|-------------------------|---------12--------------|-------------------------|
|14----------12----11-----|12----14----14-12-11-----|-------------------------|
|-------------------------|---------------------1412|-------------------------|
|-------------------------|-------------------------|-------------------------|
|-------------------------|-------------------------|-------------------------|


 VERSE 3.
   D                         G                       D                         G           A
   So   I said    my      congratulations.           Before    I   lost myself in my infatuation.
  Guitar I (w/Rhy. Fig. 1  (2 times))
|-------------------------|-------------------------|-------------------------|------------------|
|-------------------------|-------------------------|-------------------------|------------------|
|-------------------------|--------12--12---12------|-------------------------|------------------|
|-------------------------|-------------------------|-------------------------|------------------|
|-------------------------|-------------------------|-------------------------|------------------|
|-------------------------|-------------------------|-------------------------|------------------|
                                  [mutted......]
   D                         G                         D                         G           A
   I stole a kiss or two. Just having fun again.     Sherriff don't like it. And   now 
back on the run again,
|-------------------------|-------------------------|-------------------------|------------------|
|-------------------------|-------------------------|-------------------------|------------------|
|-------------------------|--------12--12---12------|-------------------------|------------------|
|-------------------------|-------------------------|-------------------------|------------------|
|-------------------------|-------------------------|-------------------------|------------------|
|-------------------------|-------------------------|-------------------------|------------------|

 CHORUS:
 run again. Yeah how      I loved       to    hold her     When     we      kissed    
   never told me
|------------------|-------------------------|-------------------------|---------------------------|
|------------------|-------------------------|-------------------------|---------12----------------|
|14---12----11-----|12----11-----------------|14----------12----11-----|12----14----14-12-11-------|
|------------------|------------14-12-11-12--|-------------------------|---------------------1412--|
|------------------|-------------------------|-------------------------|---------------------------|
|------------------|-------------------------|-------------------------|---------------------------|

 Lamb   for  the slaughter                                                          Give 
back my preachers
|------------------|-------------------------|-------------------------|---------------------------|
|------------------|-------------------------|-------------------------|---------12----------------|
|14---12----11-----|12----11-----------------|14----------12----11-----|12----14----14-12-11-------|
|------------------|------------14-12-11-12--|-------------------------|---------------------1412--|
|------------------|-------------------------|-------------------------|---------------------------|
|------------------|-------------------------|-------------------------|---------------------------|

   D                         G                         D                         G           A
 daughter.                        Preachers daughter              Preachers  daughter
  Guitar I (w/Rhy. Fig. 1 (2 time))
|--------------------|-------------------------|-------------------------|-------------------------|
|--------------------|-------------------------|---------------12--------|--h-----------p----------|
|14--------12-11-12--|-11---------12---12------|14----------------14-12--|11-12-------12-11--------|
|--------------------|-----12------------------|-------------------------|------------------14-12--|
|--------------------|-------------------------|-------------------------|-------------------------|
|--------------------|-------------------------|-------------------------|-------------------------|

   D                         G                         D                         G           A
 daughter.                        Preachers daughter              Preachers  daughter
|-------------------------|-------------------------|-------------------------|------------------|
|-------------------------|-------------------------|-------------------------|------------------|
|14-------------12-11-12--|-11---------12---12------|14----------------14-12--|------------------|
|-------------------------|-----12------------------|-------------------------|14----------------|
|-------------------------|-------------------------|-------------------------|------------------|
|-------------------------|-------------------------|-------------------------|------------------|


OUTRO:
 Double Time Feel using chord D5 & G5
Comments