Refreshments - Mekong Chords & Tabs

 

Mekong Chords & Tabs

Refreshments Chords & Tabs

Version: 1 Type: Bass Tab 0 ratings
1 star 2 stars 3 stars 4 stars 5 stars
comments

Mekong Bass Tab

BASS TAB
TITLE:MEKONG
ARTIST:THE REFRESHMENTS
ALBUM:FIZZY, FUZZY, BIG AND BUZZY
TABBED BY: "THE WARLORD"~ADROCK17@EMAIL.COM
TUNING:STANDARD

intro (0:11)
A:--------7--7h8-7---|-----7------------|
E:--5--5/8---------8-|-8--8-8--8-10-8-7-|

A:--------7--7h8-7---|------2-2--3-3--4-5-|
E:--5--5/8---------8-|--3-3---------------|

A:--------7--7h8-7---|-----0----------|
E:--5--5/8---------8-|-1-1---1-1-3-4--|

A:--------7--7h8-7---|------2-2--3-3--4-5-|
E:--5--5/8---------8-|--3-3---------------|

verse: (0:30) play x 4
A:---------------|-----0h2-5-2-------|
E:-5-5-7h8-7-5-3-|-3-3---------3-3-3-|
[ Tab from: http://www.guitartabs.cc/tabs/r/refreshments/mekong_btab.html ]
D:--------------5--|-------------------|
A:-3-3-3-5-3-5/7---|-------------------|
E:-----------------|--1-1-3-1-1-3-4-5--|

chorus: (at 1:15) i'm not entirely sure...sounds close
A:-----------------3-3-----|-------3-3--------|
E:-(3)---5-5--5-5------3-3-|--5-5------3-3----|

E:--3-3--1-1--5-5--3-3--1-1--3-3--3-3--(3)--|

intro, verse x 4, chorus,

guitar solo: (3:07)
D:--------------------------------|--------2-5-2-----|
A:-----------3-3-3--3-------------|----2-5-------5-2-|
E:--5-5--5-5----------5-5-7-8-7-5-|-3----------------|

D:-----------------|-3-2-0----------|
A:-----------------|-------3-1-0----|
E:-5-5-7-8-7-5-3-1-|--------------1-|

D:---------0--------------2-5-2------|
A:-----------3-2-0----2-5-------5-2--|
E:--5-5-------------3----------------|

chorus x 2, intro-end on G

Comments