Refreshments - King Of The Hill Chords & Tabs

 

King Of The Hill Chords & Tabs

Refreshments Chords & Tabs

Version: 7 Type: Tab

King Of The Hill Tab

   
Tabber:Shred_24/7
Any questions email me at jhendrix@hotmail.com

Tuning:Standard (ebgdaE)

I have looked at so many wrong tabs and they are all wrong, so I figured I would tab
it out the right way. This is the only tab on ultimate-guitar with the solo.

Intro

e]----------0--|
b]---2-2----0--|
g]---2-2----1--|
d]---2-2----2--|
a]-0-0-0----2--|
E]--------0-0--|

Verse

e]---------------------------------------|
b]---------------------------------------|
g]-----------------------------------6-4-|
d]-2-2-2-2-2-2-2-6-2-2-2-2-2-7-7-7-7-6-4-|
a]-2-2-2-2-2-2-2-6-2-2-2-2-2-7-7-7-7-4-2-|
E]-0-0-0-0-0-0-0-4-0-0-0-0-0-5-5-5-5-----|


e]-----------------------------------------------|
b]-----------------------------------------------|
g]-----------------------------------------------|
d]-2-2-2-2-2-2-6-2-2-2-2-2-7-7-7-6-6-6-4-4-4-6-4-|
a]-2-2-2-2-2-2-6-2-2-2-2-2-7-7-7-6-6-6-4-4-4-6-4-|
E]-0-0-0-0-0-0-4-0-0-0-0-0-5-5-5-4-4-4-2-2-2-4-2-|

e]---------------------------------------|
b]---------------------------------------|
g]-----------------------------------6-4-|
d]-2-2-2-2-2-2-2-6-2-2-2-2-2-7-7-7-7-6-4-|
a]-2-2-2-2-2-2-2-6-2-2-2-2-2-7-7-7-7-4-2-|
E]-0-0-0-0-0-0-0-4-0-0-0-0-0-5-5-5-5-----|

e]---------------------------------------|
b]---------------------------------------|
g]-9-9-9-6-6-6-4-4-4-------------------9-|
d]-9-9-9-6-6-6-4-4-4-7-7-7-------------9-|
a]-7-7-7-4-4-4-2-2-2-7-7-7-----------2-7-|
E]-------------------5-5-5-4-4-5-4-2-0---|

e]------------------------------------------|
b]------------------------------------------|
g]------------------------------------------|
d]-11-11-11-11-6-6-6-6-7-7-7-7-12-12-12-7-7-|
a]-11-11-11-11-6-6-6-6-7-7-7-7-12-12-12-7-7-|
E]-9--9--9--9--4-4-4-4-5-5-5-5-10-10-10-5-5-|

e]-----------------------------------------------------------|
b]-----------------------------------------------------------|
g]-----------------------------------------------------------|
d]-11-11-11-11-6-6-6-6-7-7-7-7-7-7-7-9-9-9-7-7-7-------------|
a]-11-11-11-11-6-6-6-6-7-7-7-7-7-7-7-9-9-9-7-7-7-----------2-|
E]-9--9--9--9--4-4-4-4-5-5-5-5-5-5-5-7-7-7-5-5-5-4-4-5-4-2-0-|

e]---------------------------------------|
b]---------------------------------------|
g]-----------------------------------6-4-|
d]-2-2-2-2-2-2-2-6-2-2-2-2-2-7-7-7-7-6-4-|
a]-2-2-2-2-2-2-2-6-2-2-2-2-2-7-7-7-7-4-2-|
E]-0-0-0-0-0-0-0-4-0-0-0-0-0-5-5-5-5-----|

[ Tab from: http://www.guitartabs.cc/tabs/r/refreshments/king_of_the_hill_tab_ver_7.html ]
e]-----------------------------------------------|
b]-----------------------------------------------|
g]-----------------------------------------------|
d]-2-2-2-2-2-2-6-2-2-2-2-2-7-7-7-6-6-6-4-4-4-6-4-|
a]-2-2-2-2-2-2-6-2-2-2-2-2-7-7-7-6-6-6-4-4-4-6-4-|
E]-0-0-0-0-0-0-4-0-0-0-0-0-5-5-5-4-4-4-2-2-2-4-2-|

e]---------------------------------------|
b]---------------------------------------|
g]-----------------------------------6-4-|
d]-2-2-2-2-2-2-2-6-2-2-2-2-2-7-7-7-7-6-4-|
a]-2-2-2-2-2-2-2-6-2-2-2-2-2-7-7-7-7-4-2-|
E]-0-0-0-0-0-0-0-4-0-0-0-0-0-5-5-5-5-----|

e]---------------------------------------|
b]---------------------------------------|
g]-9-9-9-6-6-6-4-4-4-------------------9-|
d]-9-9-9-6-6-6-4-4-4-7-7-7-------------9-|
a]-7-7-7-4-4-4-2-2-2-7-7-7-----------2-7-|
E]-------------------5-5-5-4-4-5-4-2-0---|

Solo

e]------------------------------------------------------------|
b]---------------------------------12b-12b--------------------|
g]----13-11----------11b-11b-11------------13-11----13-----11-|
d]-14-------14-11-14------------14---------------14-----14----|
a]------------------------------------------------------------|
E]------------------------------------------------------------|

e]-------------------------------------|
b]-------------------x-x-x-14-14-14-12-|
g]-x-x-x-13-13-13-11-x-x-x-14-14-14-11-|
d]-x-x-x-13-13-13-11-x-x-x-11-11-11-9--|
a]-x-x-x-11-11-11-9--------------------|
E]-------------------------------------|

e]-------12-11----------------------------------------------------11b-|
b]-12-14-------14-12----------------------------------------12-14-----|
g]-------------------13-11----11b-11b-13-11---------------------------|
d]-------------------------14---------------14-11-14-11-11b-----------|
a]--------------------------------------------------------------------|
E]--------------------------------------------------------------------|


e]---------------------------------------|
b]---------------------------------------|
g]-----------------------------------6-4-|
d]-2-2-2-2-2-2-2-6-2-2-2-2-2-7-7-7-7-6-4-|
a]-2-2-2-2-2-2-2-6-2-2-2-2-2-7-7-7-7-4-2-|
E]-0-0-0-0-0-0-0-4-0-0-0-0-0-5-5-5-5-----|

e]---------------------------------------|
b]---------------------------------------|
g]-9-9-9-6-6-6-4-4-4-------------------9-|
d]-9-9-9-6-6-6-4-4-4-7-7-7-------------9-|
a]-7-7-7-4-4-4-2-2-2-7-7-7-----------2-7-|
E]-------------------5-5-5-4-4-5-4-2-0---|


Thats it have fun!