Refreshments - King Of The Hill Chords & Tabs

 

King Of The Hill Chords & Tabs

Refreshments Chords & Tabs

Version: 6 Type: Tab

King Of The Hill Tab

this tab is more accurace than the others i've seen.
Some of the chords are muted, figure it out its not hard.
Anyways this is the TV Version complete. 


()= play optional

Lead - intro
E|----------0-|
B|----22----0-|
G|----22----1-|
D|----22----2-|
A|--0-00----2-|
E|--------0-0-|

Rythem - verse part 1
E|-----------|-----------|--------------|
B|-----------|-----------|--------------|
G|-----------|-----------|-(2-2222--6-4)|
D|-(2-222222)|-(4-22222)-|--2-2222--6-4-|
A|--2-222222-|--4-222222-|--0-0000--4-2-|
E|--0-000000-|--2-000000-|--------------|

Rythem - verse part 2
E|-----------|-----------|---------------|------------|
B|-----------|-----------|---------------|------------|
G|-----------|-----------|-(2-22)--------|------------|
D|-(2-222222)|-(4-222222)|--2-22(6-66--4)|-(6-4)------|
A|--2-222222-|--4-222222-|--0-00-6-66--4-|--6-4-------|
E|--0-000000-|--2-000000-|-------4-44--2-|--4-2-------|

Rythem - verse part 3
E|-----------|-----------|---------------|
B|-----------|-----------|---------------|
G|-----------|-----------|-(2-2222--6-4)-|
D|-(2-222222)|-(4-222222)|--2-2222--6-4--|
A|--2-222222-|--4-222222-|--0-0000--4-2--|
E|--0-000000-|--2-000000-|---------------|

Lead - solo part 1
E|----------------------------------------------------|
B|--5-55---2-22---0-00--------------------------------|
G|-----------------------2-22---1-11-2p1--------------|
D|---------------------------------------4-2----------|
A|----------------------------------------------------|
E|----------------------------------------------------|

Rythem - during solo part 1
E|-------------------------------------------00-------|
B|--5-55-------------------------------------00-------|
G|--4-44---6-66---4-44---2-22----------2-----11-------|
D|--2-22---6-66---4-44---2-22---6-66---2-4-2-22-------|
A|---------4-44---2-22---0-00---6-66---0-4-2-22-------|
E|------------------------------4-44-----2-0-00-------|
note: during solo the amount of bending of the string is important.
      sometimes its a 3/4 bend, somtimes its a slowly extended bend etc.
Lead - solo part 2	^=bend
E|----------------|-------------|---------------|-------------------|
B|------^-------^-|---^-------^-|--^----------^-|--------------9----|
G|--11-11-9--9-11-|--11-9--9-12-|-12-10h12p10-9-|--9----9----9----9-|
D|---------11-----|------11-----|---------------|----11---9---------|
A|----------------|-------------|---------------|-------------------|
E|----------------|-------------|---------------|-------------------|
[ Tab from: http://www.guitartabs.cc/tabs/r/refreshments/king_of_the_hill_tab_ver_6.html ]
Rythem - during solo part 2
E|-------------|-------------|---------------|-------------------------|
B|-------------|-------------|---------------|-------------------------|
G|--6--6--6--6-|-------------|---------------|-------------------------|
D|--6--6--6--6-|--6--6--6--6-|--7--7--7--7---|-------------------------|
A|--4--4--4--4-|--6--6--6--6-|--7--7--7--7---|--12-12-12--11-11-11-----|
E|-------------|--4--4--4--4-|--5--5--5--5---|--10-10-10--9--9--9------|
note: during solo the amount of bending of the string is important.
      sometimes its a 3/4 bend, somtimes its a slowly extended bend etc.
Lead - solo part 3
E|-9-9-9-9-9-9-9-9-9-|0-0-0-0-0-0---0-0-0-|--12-11-9------------^-------^|
B|101010101010-9-9-9-|121212121212-10-9-9-|10-------12-10-9-11-11-9--9-11|
G|-------------------|--------------------|------------------------11----|
D|-------------------|--------------------|------------------------------|
A|-------------------|--------------------|------------------------------|
E|-------------------|--------------------|------------------------------|

Rythem - during solo part 3
E|-------------|-------------|--------------------------------|
B|-------------|-------------|--------------------------------|
G|--6--6--6--6-|-------------|--------------------------------|
D|--6--6--6--6-|--6--6--6--6-|-777777777777--99999999999------|
A|--4--4--4--4-|--6--6--6--6-|-777777777777--99999999999------|
E|-------------|--4--4--4--4-|-555555555555--77777777777------|

Lead - 2nd Verse
E|----------------------(^^bend G string only^^)--------------------|
B|--------------------------12---14----17---------------------------|
G|--------------------------14---16----19---------------------------|
D|------------------------------------------------------------------|
A|------------------------------------------------------------------|
E|------------------------------------------------------------------|
Rythem - 2nd Verse
E|-----------|-----------|--------------|
B|-----------|-----------|--------------|
G|-----------|-----------|-(2-2222--6-4)|
D|-(2-222222)|-(4-222222)|--2-2222--6-4-|
A|--2-222222-|--4-222222-|--0-0000--4-2-|
E|--0-000000-|--2-000000-|--------------|

Rythem - outro
E|-------------------------------------------00-------|
B|--5-55-------------------------------------00-------|
G|--4-44---6-66---4-44---2-22----------2-----11-------|
D|--2-22---6-66---4-44---2-22---6-66---2-4-2-22-------|
A|---------4-44---2-22---0-00---6-66---0-4-2-22-------|
E|------------------------------4-44-----2-0-00-------|

That is all.

Tabbed By Ben Milne 13-11-05