Refreshments - Interstate Chords & Tabs

 

Interstate Chords & Tabs

Refreshments Chords & Tabs

Version: 3 Type: Tab 0 ratings
1 star 2 stars 3 stars 4 stars 5 stars
comments

Interstate Tab

   
Song: Interstate
Band: Refreshments
Album: Fizzy, Fuzzy, Big & Buzzy
Tabbed by: Neilius@aol.com

The last guy who tabbed this was right on. I just want to add a few things I've figured out myself. This 
a great song, it's got a very smooth feeling.

INTRO:

The chords in the beginning are GM-Em-C9-GM. You can play them with the lead figure by using two guitars, 
by using one guitar - just strum the bass notes of the chords and then play the the lead figure right afterwards.

Lead Figure:

e--3-2----0--------------------------------------|
B--3---3----3------------------------------------|
G--0-----0----0----------------------------------|
D------------------------------------------------|
A------------------------------------------------|
E------------------------------------------------|

Lead Figure with Chords:

e----3-2-----0---------3-2----0----------3-2----0-----|
B----3---3-----3-------3---3----3--------3---3----3---|
G----0-----0-----0-----0-----0----0--(0)-0-----0----0-|
D--0-----------------2----------------2---------------|
A--2-----------------2----------------3---------------|
E--3-----------------0--------------------------------|

And then he goes to this little thing here to finish off:

e-------------------------------|
B--3/6--3--0---------1/3\1---0--|
G--2/4--2--0------0--2/4\2-0-0--|
D-------------0h2---------------|
A-------------------------------|
E-------------------------------|

VERSE:

The verse is four chords: Em-CM-Am-CM, then Em-CM-Am-DM. Every time he plays the A minor chord, he does 
hammer-on:

e--0----|
B--0h1--|
G--2----|
D--2----|
A--0----|
E-------|
[ Tab from: http://www.guitartabs.cc/tabs/r/refreshments/interstate_tab_ver_3.html ]
And with the D Major, for the last chord, he does this:

e--2-3-2--|  (alternate F# and G)
B--3------|
G--2------|
D--0------|
A---------|
E---------|

The strumming pattern for the verse is pretty easy to follow--just go with what feels natural.

CHORUS:

The chorus is more involved, but it's the same concept as the beginning. The top notes of the G Major 
stay throughout most of it, and the bass notes walk down by step.

   GM          G7       CM     GM
e-------3--3-------3--3--------3--3---------------------|
B-------3--3-------3--3--------3--3---------------------|
G-------0--0-------0--0--------0--0---------------------|
D--0--0-------0--0------2--2-2-2--0---------------------|
A--2--2-------X--X------3--3-3--------------------------|
E--3--3-------2--2------0--0-0--------------------------|

   GM         G7         C9
e-------3--3-------3--3--3--3-3--3-------------------|
B-------3--3-------3--3--3--3-3--3-------------------|
G-------0--0-------0--0--0--0-0--0-------------------|
D--0--0-------0--0-------2--2-2--2-------------------|
A--2--2-------X--X-------3--3-3--3-------------------|
E--3--3-------2--2-----------------------------------|

Then you go to the A minor hammer-on, and then to C Major (keep strumming like the rest):

e--0---------0------------|
B--0h1-------1------------|
G--2---------0------------|
D--2---------2------------|
A--0---------3------------|
E-------------------------|

And then, after that, you go back to the verse chord progression again. The guitar solo and the vocals 
of overlap, and then the solo takes over.

And that should be pretty much it. Except for the solo. I don't really do those, because they take too 
time. But enjoy this song, because it's really nicely written.

NEIL
Comments