Refreshments - European Swallow Chords & Tabs

 

European Swallow Chords & Tabs

Refreshments Chords & Tabs

Version: 1 Type: Bass Tab 0 ratings
1 star 2 stars 3 stars 4 stars 5 stars
comments

European Swallow Bass Tab

   
"European Swallow" 
THE REFRESHMENTS fizzy fuzzy big & buzzy
Tabbed by DirectR3 (Matt Marchain, frequent labdance attendee)

Main breakdown
    G    Bb   G  Bb F  G   Bb    G   Bb  A   Ab  G
G|--------------------------------------------------|
D|--------------------------------------------------|
A|--------------------------------------------------|
E|--3--3-6--6-3--6--1--33-3-6--6-3-3-6-6-5-5-4-4-3--|
[ Tab from: http://www.guitartabs.cc/tabs/r/refreshments/european_swallow_btab.html ]
Chorus
   E                 D       C                    G      D
G|-------------------------------------------------------------|
D|-------------------------------------------------------^-----|
A|-------------------5-5-5/3-3-3-3--3--3--3--3----^------5-----|
E|-0-0-0-0-0-0-0-0-0------------------------------3------------|

  E                   D                     C
G|------------------------------------------------------------|
D|------------------------------------------------------------|
A|--------------------5-5-5-5-5-5-5-5-5-5-5-3-3-3-3-3-3-3-3-3-|
E|0-0-0-0-0-0-0-0-0-0-----------------------------------------|

Guitar Solo (after second Chorus)
    G    Bb   C  D C BbG
G|------------------------|
D|------------------------|
A|------------3--5-3------|
E|--3--3-6--6--------6-3--|

Comments