Refreshments - Banditos Chords & Tabs

 

Banditos Chords & Tabs

Refreshments Chords & Tabs

Version: 2 Type: Bass Tab 0 ratings
1 star 2 stars 3 stars 4 stars 5 stars
comments

Banditos Bass Tab

BASS TAB
TITLE:BANDITOS
ARTIST:THE REFRESHMENTS
TABBED BY:"THE WARLORD"-ADROCK17@EMAIL.COM
THIS SONG IS REALLY GROOVY...LOTS OF ROOM TO PLAY AROUND
NEED 5-STRING OR TUNE TO B,E,A,D

rest for intro (0:14)

verse:(play each 16 times)
A:--------5....-----------------------+
E:---------------5....----------------+(x2)
B:5....-----------------5....---------+

pre-chorus:
E:-------5-55-5--------7-777-777----+
B:5-55-5--------5-55-5--------------+

chorus:(everybody knows...)
A:------------------------44444444--------------------------+
E:5555555577777777----------------5555555577777777----------+
B:----------------55555555------------------------55555555--+
[ Tab from: http://www.guitartabs.cc/tabs/r/refreshments/banditos_btab_ver_2.html ]
bridge:
E:5---5--4-4\5~flows into chorus' first note(end chorus by
B:-5---5--------+ holding the 2nd A and B notes 

verse,pre,chorus,bridge,chorus,

GUITAR SOLO!!!!(same as verse....exactly)

pre,chorus,bridge,chorus,verse x1

outro:(this is slightly harder)
D:----4444-66-46764------2222-44-24542--
A:7777-------------7/5555-------------5-

D:----/888-6-66-------------------------
A:5555---------8-88-666--5-5-5-5-5-5-5--

D:----4444-66-46764------2222-44-24542--
A:7777-------------7/5555-------------5-

D:----/8888-8888-8888-88--6-4-------------+
A:5555------------------------654---------+
E:--------------------------------654-----+
B:------------------------------------5~--+
Comments