Reel Big Fish - Youve Got To Give It To Me Chords & Tabs

 

Youve Got To Give It To Me Chords & Tabs

Reel Big Fish Chords & Tabs

Version: 1 Type: Tab 0 ratings
1 star 2 stars 3 stars 4 stars 5 stars
comments

Youve Got To Give It To Me Tab

   
Reel Big Fish - You've Got To Give It To Me
Tabbed By: Bert
EMail: loser_guitarist@hotmail.com
album: Cheer Up!

This song is the hidden track from "Cheer Up!"  It's another awesome 
RBF cover song.

ska chords: G   B   C   D     rock chords: G   B   C   D
         E:-3---------------------------------------------
         B:-3---4---5---7---------------------------------
         G:-4---4---5---7----------------------4---5---7--
         D:-5---4---5---7------------------5---4---5---7--
         A:--------------------------------5---2---3---5--
         E:--------------------------------3--------------

short ska intro: (ska chords)
  G   G   B   B |  C   C D   C
1 + 2 + 3 + 4 + |1 + 2 + 3 + 4 + |
[ Tab from: http://www.guitartabs.cc/tabs/r/reel_big_fish/youve_got_to_give_it_to_me_tab.html ]
rock intro: (rock chords)
G G G G   B B   |C C C C   D D   |
1 + 2 + 3 + 4 + |1 + 2 + 3 + 4 + | repeat x3
-----------------------------------------------------------
verse: (ska chords)
  G   G   B   B |  C   C D   C
1 + 2 + 3 + 4 + |1 + 2 + 3 + 4 + | repeat x7

switch to rock chords
D D D D D D D D |C C C C C C C C |
1 + 2 + 3 + 4 + |1 + 2 + 3 + 4 + | repeat x3
-----------------------------------------------------------
bridge:
E:-----------------|----------------|----------------|----------------|
B:-----------------|----------------|----------------|----------------|
G:-----------------|----------------|----------------|----------------|
D:-----------------|----------------|--------------0-|1-----------1-0-|
A:-------------0---|----------------|3-----------3---|----------------|
E:-3-------------3-|1-----------1-3-|----------------|----------------|
   1 + 2 + 3 + 4 + |1 + 2 + 3 + 4 + |1 + 2 + 3 + 4 + |1 + 2 + 3 + 4 + |

repeat once then two measures of palm muted Eb power chord eighth notes
-------------------------

tabbed out 10/11/02 by =bert=
Comments