Reel Big Fish - Where Have You Been Chords & Tabs

 

Where Have You Been Chords & Tabs

Reel Big Fish Chords & Tabs

Version: 2 Type: Tab 0 ratings
1 star 2 stars 3 stars 4 stars 5 stars
comments

Where Have You Been Tab

   
Reel Big Fish
Where Have You Been?
Cheer Up!
standard tuning

intro w/ slight distortion
   Am             C                   F                    G
e-------------------------------------------1--------------------3-----------|
B------1-------1--------1-----------------------1-------------------3--------|
G--------2-----------0-----0-----0-------2----------2---------4--------4-----|
D----2------2-----------------2-------3----------------3-3/5--------------5--|
A--0--------------3----------------------------------------------------------|
E----------------------------------------------------------------------------|
   Am             C                   F                    G
e-------------------------------------------1--------------------3-----------|
B------1-------1--------1-----------------------1-------------------3--------|
G--------2-----------0-----0-----0-------2----------2---------4--------4-----|
D----2------2-----------------2-------3----------------3-3/5--------------5--|
A--0--------------3----------------------------------------------------------|
E----------------------------------------------------------------------------|
   Am             C                   F                    G
e-------------------------------------------1--------------------3-----------|
B------1-------1--------1-----------------------1-------------------3--------|
G--------2-----------0-----0-----0-------2----------2---------4--------4-----|
D----2------2-----------------2-------3----------------3-3/5--------------5--|
A--0--------------3----------------------------------------------------------|
E----------------------------------------------------------------------------|
   Am             C                   F
e------------------------------------------|
B------1-------1--------1------------------|
G--------2-----------0-----0-----0------2--|
D----2------2-----------------2--------3---|
A--0--------------3-------------------3----|
E------------------------------------------|

interlude
gtr 1
e-------------------------------------------------------------|
B------5-5----5-5-----3-3---3-3-------------------------------|
G--2-2------2-----0-0-----0--------5-5---5-5-------7-7---7-7--|
D--------------------------------3-----3-----3/5-5-----5------|
A-------------------------------------------------------------|
E-------------------------------------------------------------|

gtr 2
   Am             C5             F              G
e--------------------------------1-x---1--1-1---3-x---3--3-3--|
B--1-x---1--1-1---5-x---5--5-5---1-x---1--1-1---3-x---3--3-3--|
G--2-x---2--2-2---5-x---5--5-5---2-x---2--2-2---4-x---4--4-4--|
D--2-x---2--2-2---5-x---5--5-5---3-x---3--3-3---5-x---5--5-5--|
A--0-x---0--0-0---3-x---3--3-3---3-x---3--3-3---3-x---5--5-5--|
E--------------------------------1-x---1--1-1---3-x---3--3-3--|

gtr 1
e-------------------------------------------------------------|
B------5-5----5-5-----3-3---3-3-------------------------------|
G--2-2------2-----0-0-----0--------5-5---5-5-------7-7---7-7--|
D--------------------------------3-----3-----3/5-5-----5------|
A-------------------------------------------------------------|
E-------------------------------------------------------------|


gtr 2
   Am             C5             F              G
e--------------------------------1-x---1--1-1---3-x---3--3-3--|
B--1-x---1--1-1---5-x---5--5-5---1-x---1--1-1---3-x---3--3-3--|
G--2-x---2--2-2---5-x---5--5-5---2-x---2--2-2---4-x---4--4-4--|
D--2-x---2--2-2---5-x---5--5-5---3-x---3--3-3---5-x---5--5-5--|
A--0-x---0--0-0---3-x---3--3-3---3-x---3--3-3---3-x---5--5-5--|
E--------------------------------1-x---1--1-1---3-x---3--3-3--|

verse
gtr 1
              Am             C                   F                    G
e------------------------------------------------------1--------------------|
B-----------------1-------1--------1-----------------------1----------------|
G-------------------2-----------0-----0-----0-------2----------2---------4--|
D---------------2------2-----------------2-------3----------------3-3/5-----|
A-------------0--------------3----------------------------------------------|
E---------------------------------------------------------------------------|

e--3----------|
B----3--------|
G-------4-----|
D----------5--|
A-------------|
E-------------|

gtr 2
   Am
e--------------------|
B--1~----------------|
G--2~----------------|
D--2~----------------|
A--0~-----------[0]--|
E--------------------|

gtr 1
   Am             C                   F                    G
e-------------------------------------------1--------------------3-----------|
B------1-------1--------1-----------------------1-------------------3--------|
G--------2-----------0-----0-----0-------2----------2---------4--------4-----|
D----2------2-----------------2-------3----------------3-3/5--------------5--|
A--0--------------3----------------------------------------------------------|
E----------------------------------------------------------------------------|
   Am             C                   F                    G
e-------------------------------------------1--------------------3-----------|
B------1-------1--------1-----------------------1-------------------3--------|
G--------2-----------0-----0-----0-------2----------2---------4--------4-----|
D----2------2-----------------2-------3----------------3-3/5--------------5--|
A--0--------------3----------------------------------------------------------|
E----------------------------------------------------------------------------|
   Am             C                   F                    G
e-------------------------------------------1--------------------3-----------|
B------1-------1--------1-----------------------1-------------------3--------|
G--------2-----------0-----0-----0-------2----------2---------4--------4-----|
D----2------2-----------------2-------3----------------3-3/5--------------5--|
A--0--------------3----------------------------------------------------------|
E----------------------------------------------------------------------------|

   Am             C                   F
e-------------------------------------------1---------------|
B------1-------1--------1-----------------------1-----------|
G--------2-----------0-----0-----0-------2----------2-------|
D----2------2-----------------2-------3----------------3-3--|
A--0--------------3-----------------------------------------|
E-----------------------------------------------------------|

gtrs 1&2 w/ heavy distortion
e--------------------------|
B--------------------------|
G--------------------------|
D--5---5--5-5-5--5--5-5-5--|
A--5-x-5--5-5-5--5--5-5-5--|
E--3-x-3--3-3-3--3--3-3-3--|
pm -   -  - - -

chorus
both gtrs w/ heavy distortion
   C5                G5                F5                G5
e------------------------------------------------------------------------|
B------------------------------------------------------------------------|
G--5---5--5-5-5-5--------------------------------------------------------|
D--5---5--5-5-5-5----5---5--5-5-5-5----3---3--3-3-3-3----5---5--5-5-5-5--|
A--3---3--3-3-3-3----5---5--5-5-5-5----3---3--3-3-3-3----5---5--5-5-5-5--|
E--------------------3---3--3-3-3-3----1---1--1-1-1-1----3---3--3-3-3-3--|
   C5                G5                F5
e------------------------------------------------------------------------|
B------------------------------------------------------------------------|
G--5---5--5-5-5-5--------------------------------------------------------|
D--5---5--5-5-5-5----5---5--5-5-5-5----3---3--3-3-3-3--3-3-3-3-3--3-3-3--|
A--3---3--3-3-3-3----5---5--5-5-5-5----3---3--3-3-3-3--3-3-3-3-3--3-3-3--|
E--------------------3---3--3-3-3-3----1---1--1-1-1-1--1-1-1-1-1--1-1-1--|
   C5                G5                F5                G5
e------------------------------------------------------------------------|
B------------------------------------------------------------------------|
G--5---5--5-5-5-5--------------------------------------------------------|
D--5---5--5-5-5-5----5---5--5-5-5-5----3---3--3-3-3-3----5---5--5-5-5-5--|
A--3---3--3-3-3-3----5---5--5-5-5-5----3---3--3-3-3-3----5---5--5-5-5-5--|
E--------------------3---3--3-3-3-3----1---1--1-1-1-1----3---3--3-3-3-3--|
   C5                G5                F5
e------------------------------------------------------------------------|
B------------------------------------------------------------------------|
G--5---5--5-5-5-5--------------------------------------------------------|
D--5---5--5-5-5-5----5---5--5-5-5-5----3---3--3-3-3-3--3-3-3-3-3--3-3-3--|
A--3---3--3-3-3-3----5---5--5-5-5-5----3---3--3-3-3-3--3-3-3-3-3--3-3-3--|
E--------------------3---3--3-3-3-3----1---1--1-1-1-1--1-1-1-1-1--1-1-1--|

interlude
verse
chorus

bridge
both gtrs
   A5                 G5                 F5                G5
e-----x-x---x--x-x------x-x----x--x-x------x-x---x--x-x------x-x---x--x-x--|
B-----x-x---x--x-x------x-x----x--x-x------x-x---x--x-x------x-x---x--x-x--|
G-----x-x---x--x-x------x-x----x--x-x------x-x---x--x-x------x-x---x--x-x--|
D--7--x-x---x--x-x--7\5-x-x----x--x-x--5\3-x-x---x--x-x--3/5-x-x---x--x-x--|
A--7--x-x---x--x-x--7\5-x-x----x--x-x--5\3-x-x---x--x-x--3/5-x-x---x--x-x--|
E--5--x-x---x--x-x--5\3-x-x----x--x-x--3\1-x-x---x--x-x--1/3-x-x---x--x-x--|
   C5                G5                F5                G5
e------------------------------------------------------------------------|
B------------------------------------------------------------------------|
G--5---5--5-5-5-5--------------------------------------------------------|
D--5---5--5-5-5-5----5---5--5-5-5-5----3---3--3-3-3-3----5---5--5-5-5-5--|
A--3---3--3-3-3-3----5---5--5-5-5-5----3---3--3-3-3-3----5---5--5-5-5-5--|
E--------------------3---3--3-3-3-3----1---1--1-1-1-1----3---3--3-3-3-3--|
   A5            G5           F5                G5
e-----x-x---x------x-x---x------x-x---x------x-x---x--|
B-----x-x---x------x-x---x------x-x---x------x-x---x--|
G-----x-x---x------x-x---x------x-x---x------x-x---x--|
D--7--x-x---x--7\5-x-x---x--5\3-x-x---x--3/5-x-x---x--|
A--7--x-x---x--7\5-x-x---x--5\3-x-x---x--3/5-x-x---x--|
E--5--x-x---x--5\3-x-x---x--3\1-x-x---x--1/3-x-x---x--|
   C5                G5                F5                G5
e------------------------------------------------------------------------|
B------------------------------------------------------------------------|
G--5---5--5-5-5-5--------------------------------------------------------|
D--5---5--5-5-5-5----5---5--5-5-5-5----3---3--3-3-3-3----5---5--5-5-5-5--|
A--3---3--3-3-3-3----5---5--5-5-5-5----3---3--3-3-3-3----5---5--5-5-5-5--|
E--------------------3---3--3-3-3-3----1---1--1-1-1-1----3---3--3-3-3-3--|
   C5                              G5                              F5
e----------------------------------------------------------------------------|
B----------------------------------------------------------------------------|
G--5---5---5---5---5---5---5---5---------------------------------------------|
D--5---5---5---5---5---5---5---5---5---5---5---5---5---5---5---5---3--3-3--3-|
A--3---3---3---3---3---3---3---3---5---5---5---5---5---5---5---5---3--3-3--3-|
E----------------------------------3---3---3---3---3---3---3---3---1--1-1--1-|
             G5
e-------------------------------|
B-------------------------------|
G-------------------------------|
D--3-3-3-3-3-5-5--5-5--5-5-5-5--|
A--3-3-3-3-3-5-5--5-5--5-5-5-5--|
E--1-1-1-1-1-3-3--3-3--3-3-3-3--|
   C5                              G5                              F5
e----------------------------------------------------------------------------|
B----------------------------------------------------------------------------|
G--5---5---5---5---5---5---5---5---------------------------------------------|
D--5---5---5---5---5---5---5---5---5---5---5---5---5---5---5---5---3--3-3--3-|
A--3---3---3---3---3---3---3---3---5---5---5---5---5---5---5---5---3--3-3--3-|
E----------------------------------3---3---3---3---3---3---3---3---1--1-1--1-|
             G5
e-------------------------------|
B-------------------------------|
G-------------------------------|
D--3-3-3-3-3-5-5--5-5--5-5-5-5--|
A--3-3-3-3-3-5-5--5-5--5-5-5-5--|
E--1-1-1-1-1-3-3--3-3--3-3-3-3--|
[ Tab from: http://www.guitartabs.cc/tabs/r/reel_big_fish/where_have_you_been_tab_ver_2.html ]
solo (attempted)
gtr 1
e-----------------------------------------------------------------------------|
B-----------------------------------------------------------------------------|
G--3-/-5--5-5--5-5-5-5p3-1-1----------------------------3-/-5--5-5/12--10-8-8-|
D------------------------------1/3---3-3/5--5p3-3-1-1-------------------------|
A-----------------------------------------------------------------------------|
E-----------------------------------------------------------------------------|

e-------------------------------|
B-------------------------------|
G--8----------------------------|
D-----1/3--3-3/5--5-5/7--7-7/9--|
A-------------------------------|
E-------------------------------|
   C5            G5            F5            G5         C5            G5
e----------------------------------------------------------------------------|
B----------------------------------------------------------------------------|
G--5--5-5-5-5-5-----------------------------------------5--5-5-5-5-5---------|
D--5--5-5-5-5-5--5--5-5-5-5-5--3--3-3-3-3-3--5-5-5-5-5--5--5-5-5-5-5--5--5-5-|
A--3--3-3-3-3-3--5--5-5-5-5-5--3--3-3-3-3-3--5-5-5-5-5--3--3-3-3-3-3--5--5-5-|
E----------------3--3-3-3-3-3--1--1-1-1-1-1--3-3-3-3-3----------------3--3-3-|
   G5     F5            G5
e------------------------------------|
B------------------------------------|
G------------------------------------|
D--5-5-5--3--3-3-3-3-3--5-5-5-5-5-5--|
A--5-5-5--3--3-3-3-3-3--5-5-5-5-5-5--|
E--3-3-3--1--1-1-1-1-1--3-3-3-3-3-3--|

solo (cont'd)
gtr 1
e---------------------------------------------|
B---------------------------------------------|
G---------------------------------------------|
D--9-9h10~------------------------------------|
A---------------------------------------------|
E---------------------------------------------|

final verse
gtr 1
              Am             C                   F                    G
e------------------------------------------------------1--------------------|
B-----------------1-------1--------1-----------------------1----------------|
G-------------------2-----------0-----0-----0-------2----------2---------4--|
D---------------2------2-----------------2-------3----------------3-3/5-----|
A-------------0--------------3----------------------------------------------|
E---------------------------------------------------------------------------|

e--3----------|
B----3--------|
G-------4-----|
D----------5--|
A-------------|
E-------------|

gtr 2
   Am
e--------------------|
B--1~----------------|
G--2~----------------|
D--2~----------------|
A--0~-----------[0]--|
E--------------------|

gtr 1
   Am             C                   F                    G
e-------------------------------------------1--------------------3-----------|
B------1-------1--------1-----------------------1-------------------3--------|
G--------2-----------0-----0-----0-------2----------2---------4--------4-----|
D----2------2-----------------2-------3----------------3-3/5--------------5--|
A--0--------------3----------------------------------------------------------|
E----------------------------------------------------------------------------|
   Am             C                   F                    G
e-------------------------------------------1--------------------3-----------|
B------1-------1--------1-----------------------1-------------------3--------|
G--------2-----------0-----0-----0-------2----------2---------4--------4-----|
D----2------2-----------------2-------3----------------3-3/5--------------5--|
A--0--------------3----------------------------------------------------------|
E----------------------------------------------------------------------------|
   Am             C                   F                    G
e-------------------------------------------1--------------------3-----------|
B------1-------1--------1-----------------------1-------------------3--------|
G--------2-----------0-----0-----0-------2----------2---------4--------4-----|
D----2------2-----------------2-------3----------------3-3/5--------------5--|
A--0--------------3----------------------------------------------------------|
E----------------------------------------------------------------------------|
   Am             C                 F5
e-----------------------------------------------|
B------1-------1--------1-----------------------|
G--------2-----------0-----0-----0--------------|
D----2------2-----------------2-----3-x---------|
A--0--------------3-----------------3-x---------|
E-----------------------------------1-x---------|

chorus
both gtrs w/ heavy distortion
   C5                G5                F5                G5
e------------------------------------------------------------------------|
B------------------------------------------------------------------------|
G--5---5--5-5-5-5--------------------------------------------------------|
D--5---5--5-5-5-5----5---5--5-5-5-5----3---3--3-3-3-3----5---5--5-5-5-5--|
A--3---3--3-3-3-3----5---5--5-5-5-5----3---3--3-3-3-3----5---5--5-5-5-5--|
E--------------------3---3--3-3-3-3----1---1--1-1-1-1----3---3--3-3-3-3--|
   C5                G5                F5
e------------------------------------------------------------------------|
B------------------------------------------------------------------------|
G--5---5--5-5-5-5--------------------------------------------------------|
D--5---5--5-5-5-5----5---5--5-5-5-5----3---3--3-3-3-3--3-3-3-3-3--3-3-3--|
A--3---3--3-3-3-3----5---5--5-5-5-5----3---3--3-3-3-3--3-3-3-3-3--3-3-3--|
E--------------------3---3--3-3-3-3----1---1--1-1-1-1--1-1-1-1-1--1-1-1--|
   C5                G5                F5                G5
e------------------------------------------------------------------------|
B------------------------------------------------------------------------|
G--5---5--5-5-5-5--------------------------------------------------------|
D--5---5--5-5-5-5----5---5--5-5-5-5----3---3--3-3-3-3----5---5--5-5-5-5--|
A--3---3--3-3-3-3----5---5--5-5-5-5----3---3--3-3-3-3----5---5--5-5-5-5--|
E--------------------3---3--3-3-3-3----1---1--1-1-1-1----3---3--3-3-3-3--|
   C5                G5                F5
e------------------------------------------------------------------------|
B------------------------------------------------------------------------|
G--5---5--5-5-5-5--------------------------------------------------------|
D--5---5--5-5-5-5----5---5--5-5-5-5----3---3--3-3-3-3--3-3-3-3-3--3-3-3--|
A--3---3--3-3-3-3----5---5--5-5-5-5----3---3--3-3-3-3--3-3-3-3-3--3-3-3--|
E--------------------3---3--3-3-3-3----1---1--1-1-1-1--1-1-1-1-1--1-1-1--|
   C5                G5                F5                G5
e------------------------------------------------------------------------|
B------------------------------------------------------------------------|
G--5---5--5-5-5-5--------------------------------------------------------|
D--5---5--5-5-5-5----5---5--5-5-5-5----3---3--3-3-3-3----5---5--5-5-5-5--|
A--3---3--3-3-3-3----5---5--5-5-5-5----3---3--3-3-3-3----5---5--5-5-5-5--|
E--------------------3---3--3-3-3-3----1---1--1-1-1-1----3---3--3-3-3-3--|
   C5                G5                F5
e------------------------------------------------------------------------|
B------------------------------------------------------------------------|
G--5---5--5-5-5-5--------------------------------------------------------|
D--5---5--5-5-5-5----5---5--5-5-5-5----3---3--3-3-3-3--3-3-3-3-3--3-3-3--|
A--3---3--3-3-3-3----5---5--5-5-5-5----3---3--3-3-3-3--3-3-3-3-3--3-3-3--|
E--------------------3---3--3-3-3-3----1---1--1-1-1-1--1-1-1-1-1--1-1-1--|

outro
   C5                G5                F5
e------------------------------------------------------------------------|
B------------------------------------------------------------------------|
G--5---5--5-5-5-5--------------------------------------------------------|
D--5---5--5-5-5-5----5---5--5-5-5-5----3---3--3-3-3-3--3-3-3-3-3--3-3-3--|
A--3---3--3-3-3-3----5---5--5-5-5-5----3---3--3-3-3-3--3-3-3-3-3--3-3-3--|
E--------------------3---3--3-3-3-3----1---1--1-1-1-1--1-1-1-1-1--1-1-1--|
   C5                G5                F5
e------------------------------------------------------------------------|
B------------------------------------------------------------------------|
G--5---5--5-5-5-5--------------------------------------------------------|
D--5---5--5-5-5-5----5---5--5-5-5-5----3---3--3-3-3-3--3-3-3-3-3--3-3-3--|
A--3---3--3-3-3-3----5---5--5-5-5-5----3---3--3-3-3-3--3-3-3-3-3--3-3-3--|
E--------------------3---3--3-3-3-3----1---1--1-1-1-1--1-1-1-1-1--1-1-1--|
   C5                G5                F5                G5
e------------------------------------------------------------------------|
B------------------------------------------------------------------------|
G--5---5--5-5-5-5--------------------------------------------------------|
D--5---5--5-5-5-5----5---5--5-5-5-5----3---3--3-3-3-3----5---5--5-5-5-5--|
A--3---3--3-3-3-3----5---5--5-5-5-5----3---3--3-3-3-3----5---5--5-5-5-5--|
E--------------------3---3--3-3-3-3----1---1--1-1-1-1----3---3--3-3-3-3--|
   C5                G5                F5
e------------------------------------------------------------------------|
B------------------------------------------------------------------------|
G--5---5--5-5-5-5--------------------------------------------------------|
D--5---5--5-5-5-5----5---5--5-5-5-5----3---3--3-3-3-3--3-3-3-3-3--3-3-3--|
A--3---3--3-3-3-3----5---5--5-5-5-5----3---3--3-3-3-3--3-3-3-3-3--3-3-3--|
E--------------------3---3--3-3-3-3----1---1--1-1-1-1--1-1-1-1-1--1-1-1--|
   C5                G5                F5                G5
e------------------------------------------------------------------------|
B------------------------------------------------------------------------|
G--5---5--5-5-5-5--------------------------------------------------------|
D--5---5--5-5-5-5----5---5--5-5-5-5----3---3--3-3-3-3----5---5--5-5-5-5--|
A--3---3--3-3-3-3----5---5--5-5-5-5----3---3--3-3-3-3----5---5--5-5-5-5--|
E--------------------3---3--3-3-3-3----1---1--1-1-1-1----3---3--3-3-3-3--|
   C5                G5                F5
e------------------------------------------------------------------------|
B------------------------------------------------------------------------|
G--5---5--5-5-5-5--------------------------------------------------------|
D--5---5--5-5-5-5----5---5--5-5-5-5----3---3--3-3-3-3--3-3-3-3-3--3-3-3--|
A--3---3--3-3-3-3----5---5--5-5-5-5----3---3--3-3-3-3--3-3-3-3-3--3-3-3--|
E--------------------3---3--3-3-3-3----1---1--1-1-1-1--1-1-1-1-1--1-1-1--|
   C5                G5                F5                G5
e------------------------------------------------------------------------|
B------------------------------------------------------------------------|
G--5---5--5-5-5-5--------------------------------------------------------|
D--5---5--5-5-5-5----5---5--5-5-5-5----3---3--3-3-3-3----5---5--5-5-5-5--|
A--3---3--3-3-3-3----5---5--5-5-5-5----3---3--3-3-3-3----5---5--5-5-5-5--|
E--------------------3---3--3-3-3-3----1---1--1-1-1-1----3---3--3-3-3-3--|
   C5                G5                F5
e------------------------------------------------------------------------|
B------------------------------------------------------------------------|
G--5---5--5-5-5-5--------------------------------------------------------|
D--5---5--5-5-5-5----5---5--5-5-5-5----3---3--3-3-3-3--3-3-3-3-3--3-3-3--|
A--3---3--3-3-3-3----5---5--5-5-5-5----3---3--3-3-3-3--3-3-3-3-3--3-3-3--|
E--------------------3---3--3-3-3-3----1---1--1-1-1-1--1-1-1-1-1--1-1-1--|
   C5                G5               F
e----------------------------------------1~------------------------------|
B---------------------------------------1~-------------------------------|
G--5---5--5-5-5-5----------------------2~--------------------------[2]---|
D--5---5--5-5-5-5----5----------------3~---------------------------[3]---|
A--3---3--3-3-3-3----5---------------------------------------------------|
E--------------------3---------------------------------------------------|

---------------------------------------------------
i'm not so sure about the solo... if you can correct it, or tab it out yourself,
that would be kick ass. have fun playin this song. rbf rocks.
Comments