Reel Big Fish - Where Have You Been Solo Chords & Tabs

 

Where Have You Been Solo Chords & Tabs

Reel Big Fish Chords & Tabs

Version: 2 Type: Tab 0 ratings
1 star 2 stars 3 stars 4 stars 5 stars
comments

Where Have You Been Solo Tab

Artist: Reel Big Fish
Song: Where Have You Been
Tabbed by: Colin Brown

[ Tab from: http://www.guitartabs.cc/tabs/r/reel_big_fish/where_have_you_been_solo_tab_ver_2.html ]
e:------------------------------------------------------------------------------------
b:---13-13-13-13-13-12---------------------------------------------13-13-13-13-13-12--
g:----------------------14-12-12-12-12-12---------------------------------------------
d:----------------------------------------10s12-12-12s14-12-10-10---------------------
a:------------------------------------------------------------------------------------
e:------------------------------------------------------------------------------------

e:---------------------------------------------------------------------
b:---15----------------------------------------------------------------
g:------12-----------------------------12-12-12-12h14------------------
d:----------10h12-12-12-12s14-14-14-14---------------------------------
a:---------------------------------------------------------------------
e:---------------------------------------------------------------------

This is perfect and its the only solo that i can find for this song
if you want to complain or add your comments then send them to
colbrown@tiscali.co.uk
Comments