Reel Big Fish - Where Have You Been Solo Chords & Tabs

 

Where Have You Been Solo Chords & Tabs

Reel Big Fish Chords & Tabs

Version: 1 Type: Tab 0 ratings
1 star 2 stars 3 stars 4 stars 5 stars
comments

Where Have You Been Solo Tab

Track:Where Have You Been? (Solo)
Artist: Reel Big Fish
Tabbed by: Nixon T

This is just the guitar solo. The other tabs have what Guitar 2 plays,
This is what Guitar 1 plays. The notes are all there but you might
have to improvise and play around with it to make it fit the song.
it's my first tab so gemme a break. i'm not quite sure about the ending
though. but up to the massive slides at the end, it sounds right.
[ Tab from: http://www.guitartabs.cc/tabs/r/reel_big_fish/where_have_you_been_solo_tab.html ]
e----------------------------------------------------------------
B--13--13-13-12-10-10/8-8----------------------------------------
G-------------------------7-7-7-7/9-9\7-5------------------------
D----------------------------------------------------------------
A----------------------------------------------------------------
E----------------------------------------------------------------

e----------------------------------------------------------------
B--13--13-13-12-12/15--------------------------------------------
G---------------------12--4/5-5/7-7/9-9/12-12/14-----------------
D----------------------------------------------------------------
A----------------------------------------------------------------
E----------------------------------------------------------------
Comments