Reel Big Fish - Where Have You Been Chords & Tabs

 

Where Have You Been Chords & Tabs

Reel Big Fish Chords & Tabs

Version: 1 Type: Bass Tab 0 ratings
1 star 2 stars 3 stars 4 stars 5 stars
comments

Where Have You Been Bass Tab

   
-------------------------------------------------------------------------------
			 WHERE HAVE YOU BEEN - Reel Big Fish
-------------------------------------------------------------------------------

Tabbed By : Jesusdude89
e-mail: buslenbus@netscape.net

yeah, this is my first tab on the intrawebnet, so yeah.

Tuning: Standard

Bass comes in after the guitar intro x2

G-----------------------------------------------------
D-----------------------------------------------------
A-0-0--0--0----3-3--3--3---------------------0-3-5----
E-----------------------------1-1--1--1----3----------

G-----------------------------------------------------
D-----------------------------------------------------
A-0-0--0--0----3-3--3--3-------------------0/5-3-2---0
E-----------------------------1-1--1--1------------3--

Then bass on the verse without any guitar

G--------------------------------------------------------------------------------------------------------------
D--------------------------------------------------------------------------------------------------------------
A-0-/-3---------------3-5--0-0-/-3------3-/-5-3-2--2-/-12-\-3---------------2h3p2---------0-/-3--5-/-8--5-5-555
E--------3-\-1--1-/-3--------------3-\-1----------------------3-\-1--1-/-3---------3-/-5-----------------------

Chorus 

G---------------------------------------
D---------------------------------------
A-3-2-0---------------------------------
E---------3-3-3-3--0-0-0-0--1-1-1-1----


G---------------------------------------
D---------------------------------------
A-3-2-0-----------------------8-/-10-8-7
E---------3-3-3-3--0-0-0-0-------------

G---------------------------------------
D---------------------------------------
A-3-2-0---------------------------------
E---------3-3-3-3--0-0-0-0--1-1-1-1----

G---------------------------------------
D---------------------------------------
A-3-2-0---------------------------------
E---------3-3-3-3--0-0-0-0--1-1-1-1----

Bridge 
[ Tab from: http://www.guitartabs.cc/tabs/r/reel_big_fish/where_have_you_been_btab.html ]
G-------------------------------------------------------
D-------------------------------------------------------
A--------------------7------55---5-----33----3-------3-5
E-5-\-3-\-1-/-3--5-5---5--3----3----11----11---3-3h5----

Bridge 2 

G-----------------------------------------
D-----------------------------------------
A-3-3-3-3---------------------------------
E----------3-3-3-3--0-0-0-0--1-1-1-1------

Guitar Solo

G----------------------------------
D--------------------5---7---------
A-3-2-0------------7---7---7-5-3-2-
E---------3-3-3-3------------------

G----------------------------5-/-7~---
D--------------------7---9----------5~
A-3-2-0------------7---7---7----------
E---------3-3-3-3--------------------


"Asked If You could come back home, so sorry that you left me"

G----------------------
D----------------------
A-0~--2-/-12-\-3-------
E-----------------3-\-1

Outro

G---------------------------------------
D---------------------------------------
A-3-2-0---------------------------------
E---------3-3-3-3--0-0-0-0--1-1-1-1----


G---------------------------------------
D---------------------------------------
A-3-2-0-----------------------8-/-10-8-7
E---------3-3-3-3--0-0-0-0-------------

G---------------------------------------
D---------------------------------------
A-3-2-0---------------------------------
E---------3-3-3-3--0-0-0-0--1-1-1-1----

G---------------------------------------
D---------------------------------------
A-3-2-0-----------------------8-/-10-8-7
E---------3-3-3-3--0-0-0-0-------------

G---------------------------------------
D---------------------------------------
A-3-2-0---------------------------------   x 4
E---------3-3-3-3--0-0-0-0--1-1-1-1----

G-----------
D-----------
A-3-2-0-----
E---------3~

first bit x1
verse x1
chorus x1
first bit x2
verse x1
chorus x1
bridge x2
bridge 2 x2
guitar solo X1
"Asked If You could come back home, so sorry that you left me" part x1
outro x1


| /  slide up
| \  slide down
| h  hammer-on
| p  pull-off
| ~  vibrato
| +  harmonic
| x  Mute note
===============================================================================
Comments