Reel Big Fish - The Setup Chords & Tabs

 

The Setup Chords & Tabs

Reel Big Fish Chords & Tabs

Version: 1 Type: Tab 0 ratings
1 star 2 stars 3 stars 4 stars 5 stars
comments

The Setup Tab

------------------------------------------------------------
REEL BIG FISH - THE SETUP
------------------------------------------------------------

BY: DEREK

INTRO:
e |--------------------------------------------------------|
B |--------------------------------------------------------|
G |--------------------------------------------------------|
D |--------------------------------------------------------|
A |-4\3-2p0----------------0--4\3-2------------------------|
E |---------2/3-4-0--4\3-2----------4-0--------------------|

e |--------------------------------------------------------|
B |--------------------------------------------------------|
G |--------------------------------------------------------|
D |-9-------------2--6-7-7-7\6/7-9-------------------------|
A |-9--6-7-7-7\6--2--6-7-7-7\6/7-9-------------------------|
E |-7-----------7-0--4-5-5-5\4/5-7-------------------------|

VERSES:
e |--------------------------------------------------------|
B |--------------------------------------------------------|
G |--------------------------------------------------------|
D |-6/7--8/9--6/7--8/9--6/7-7-7-7-7-7-7-7------------------|
A |-6/7--8/9--6/7--8/9--6/7-7-7-7-7-7-7-7------------------|
E |-4/5--6/7--4/5--6/7--4/5-5-5-5-5-5-5-5------------------|

CHORUS:
e |--------------------------------------------------------|
B |--------------------------------------------------------|
G |-9-9-9-11-11-----------9-9-9-11-11-----------9-9--------|
D |-9-9-9-11-11-9-9-9-7-7-9-9-9-11-11-9-9-9-7-7-9-9-4-6-7--|
A |-7-7-7-9--9--9-9-9-7-7-7-7-7-9--9--9-9-9-7-7-7-7-4-6-7--|
E |-------------7-7-7-5-5-------------7-7-7-5-5-----2-4-5--|

BRIDGE:
e |--------------------------------------------------------|
B |--------------------------------------------------------|
G |--------------------4-----------------------------------|
D |-4-4-4-2-2--4-4-4-2-4--4-4-4-2-2------------------------|
A |-4-4-4-2-2--4-4-4-2-2--4-4-4-2-2------------------------|
E |-2-2-2-0-0--2-2-2-0----2-2-2-0-0------------------------|
[ Tab from: http://www.guitartabs.cc/tabs/r/reel_big_fish/the_setup_tab.html ]
e |--------------------------------------------------------|
B |--------------------------------------------------------|
G |--------------------------------------------------------|
D |-6-6-6-6/7-7-7-7\6-6-6-6/7-7-7-7\6-6-6-6/7-7-7-7/8-8/9--|
A |-6-6-6-6/7-7-7-7\6-6-6-6/7-7-7-7\6-6-6-6/7-7-7-7/8-8/9--|
E |-4-4-4-4/5-5-5-5\4-4-4-4/5-5-5-5\4-4-4-4/5-5-5-5/6-6/7--|

SOLO:
e |---------7----------------------------------------------|
B |-----------7-----------------9-7------------------------|
G |-----9-9-----8-------------------9-9-8-9-8--------------|
D |-9-9-9-9-------9-7-9-7-9-7-7---------------9------------|
A |-9-9-7-7------------------------------------------------|
E |-7-7----------------------------------------------------|

e |---------------7-11-9-7-9-7-----------------------------|
B |-------------7------------------------------------------|
G |---6-8-9-8-9----------------------------8-6-------------|
D |-9----------------------------6-9---6-9-----9-9---------|
A |----------------------------9-----9---------------------|
E |--------------------------------------------------------|

e |--------------------------------------------------------|
B |-------------7------------------------------------------|
G |-------6---8---8----------------------------------------|
D |---6-9---9-------9-----6-9-6---6------------------------|
A |-9-----------------9-9-------9---9-6--------------------|
E |-------------------------------------9-7-7-7------------|

Not sure about this solo, I think some parts are wrong. Fool around with it and if you 
think something should be different you're probably right.

OUTRO:
e |--------------------------------------------------------|
B |--------------------------------------------------------|
G |--------------------------------------------------------|
D |--------------------------------------------------------|
A |-4\3-2p0-------4\3-2p0---------------0-4\3-2----------0-|
E |---------2/3-4---------2/3-4-0-4\3-2---------4-0-4-3-2--|

Throughout this whole tab, you have to listen to the song to figure out how many times you
play everything and what order everything is in. I couldn't write every time you play 
something because I had no space. Enjoy and rock on RBF.
Comments