Reel Big Fish - The Setup Chords & Tabs

 

The Setup Chords & Tabs

Reel Big Fish Chords & Tabs

Version: 1 Type: Bass Tab 0 ratings
1 star 2 stars 3 stars 4 stars 5 stars
comments

The Setup Bass Tab

   
  BTAB: The Setup
Artist: Reel Big Fish
 Album: Unknown
Author: Rattman (jratt0@hotmail.com)

**Padrino's Bass Tab Exclusive!**

Theres lots of little changes in this song and i didnt tab out every little
difference, this has the main riffs.

Intro/Horn Riff:
G---------------------------------
D-----2-2-1-2-1-------------------
A-2-2-----------2-------0-0-0-1-2-
E-----------------0-0-0-----------

Verse:
  "I guess.."  "..not fair."   "For me to.."   "...not care."
G---------------------------------------------------------------------
D---------------------------------------------------------------------
A---------------------------------------------------------------------
E--5/7----------3/5-------------5/7-------------3/5-------------------

Pre-Chorus:
"...guuuy!"
G------------------------
D---------56-7-7-7-8-7-5-
A-----567----------------
E-5-7--------------------
[ Tab from: http://www.guitartabs.cc/tabs/r/reel_big_fish/the_setup_btab.html ]
Chorus:
G-------------------------
D-2-2-2-2-4-4-------------
A-------------2-2-2-2-0-0-
E-------------------------

"Its not true..."
G---------------------------------------------------------------------
D---------------------------------------------------------------------
A-------------7-6br------------2-2-2-2-2-6-7--------------------------
E-2-2-2-2-2-2-------4br--2-2-2---------------0-0-0-0-0----------------
br=slight bend(matches vocals mostly)

"Yoooou..."                                         x 2
G------------------------------------------------|----------------------
D------------------------------------------------|----------------------
A------------------------------------------------|---------------------- 
E-2-2-2-2-2-2-2-4-4-4-4-4-4-4-4-5-5-5-5-5-5-5-4-4|4-4-4-4-4-5-5-5-5-5-5-

This little part comes during the part where everything stops but the trumpets
and it comes on the drum crashes.
G----------
D----------
A-2-2/14\2-
E----------

Taken from Padrino's Bass Tab Archive: http://members.xoom.com/jszalma/

Comments