Reel Big Fish - Take On Me Chords & Tabs

 

Take On Me Chords & Tabs

Reel Big Fish Chords & Tabs

Version: 2 Type: Tab 0 ratings
1 star 2 stars 3 stars 4 stars 5 stars
comments

Take On Me Tab

Reel Big Fish - Take On Me
Basketball Soundtrack
Stratster182 
This tab i actually stole off ... but i did not like the spacing and there wasn't
a guitar tab for it here.  This song is great, but don't take my word for it,
play it yourself.  I haven't even played it yet to see if it is right.  I am
sorry who ever made this tab but you didn't sign it.  Write me and i will edit it
and give you credit.

Intro:                                                                         

 E|-------2----------------------|
 B|----------3-------------------|
 G|-4-----------4--------4-------|
 D|-4--------------------4-------|
 A|-2--------------------2-------|
 E|------------------------------|                  
 

Trumpet: 

 E|-------------------------------------------------------|
 B|-------------------------------------------------------|
 G|-------------------1-1-4-4-22--------------------------|     
 D|--4-4-------222----------------2-----------------------|
 A|-------5-22------------------------4----5-5-5-4-5-4-5--|
 E|---------------------------------------5---------------|           


Verse:                                                                         
[ Tab from: http://www.guitartabs.cc/tabs/r/reel_big_fish/take_on_me_tab_ver_2.html ]
 E|--7-----4-----9-----10---10-----9-------|
 B|--7-----5-----10----10---10-----9-------|
 G|--8-----4-----9-----11---11----10-------|     
 D|----------------------------------------|
 A|----------------------------------------|
 E|----------------------------------------|   


Chorus:

 E|-------------------------------------------------|
 B|-------------------------------------------------|
 G|------------9------11--------7-----6-------4-----|  
 D|----7-------9------11--------7-----6-------4-----|
 A|----7-------7------9---------5-----4-------2-----|
 E|----5--------------------------------------------|

End of Chorus:

 E|------------------------------------|
 B|------------------------------------|
 G|---------------------7-------9------|
 D|----7-------7--------7-------9------|
 A|----7-------7--------5-------7------|
 E|----5-------4-----------------------|


Play Verse again, Then Chorus, then 

Bridge:                                                  Other Trumpet

 E|---4----3-----------|
 B|---5----3-----------|
 G|---6----4---4----9--|
 D|---6--------4----9--|
 A|---4--------2----7--|
 E|--------------------|

Other Trumpet:
 E|----------------------------|
 B|----------------------------|
 G|---------------------1-1-4-4|
 D|--4-4--------2-2-2----------|
 A|-------5-2-2----------------|
 E|----------------------------|


Then Play trumpet part, verse, and the chorus x2

Order:
Intro---------x1
Trumpet-------x2
Verse---------x4
Bridge--------x2
Other Trumpet-x2
Trumpet-------x1
Verse---------x1
Chorus--------x2

I am not sure of the chorus parts but if you listen to the songs then you can figure them out.

Hope you have fun cause i know i will!!
~~Get Drunk~~
Comments