Reel Big Fish - Sr Chords & Tabs

 

Sr Chords & Tabs

Reel Big Fish Chords & Tabs

Version: 1 Type: Tab 0 ratings
1 star 2 stars 3 stars 4 stars 5 stars
comments

Sr Tab

   
------------------------------------------------------------
                               S.R. - Reel Big Fish
------------------------------------------------------------

thanks to Calum Neil (calumneil@hotmail.com) for this tab!

main riff:
       B       E/F#  
e||----7---7---7/9--9---||16x   
B||----7---7---9/11-11--||   
G||*-x-8---8-x-9/11-11-*||         
D||*-x(9)-(9)x---------*||        
A||--x(9)-(9)x----------||
E||---------------------||    
[ Tab from: http://www.guitartabs.cc/tabs/r/reel_big_fish/sr_tab.html ]
then main riff w/o slide:
       B       E   F#
e||----7---7---7---9---||4x             
B||----7---7---9---11--||          
G||*-x-8-x-8-x-9-x-11-*||      
D||*-x(9)x(9)x---x----*||             
A||--x(9)x(9)x---x-----||        
E||--------------------||        

then:
     B   F#  E   F#      B   F#  E
e||-------------------||-----------------|
B||-----------------2x||-------------r-r-|
G||*-4-4-------------*||-4-4---------e-e-|
D||*-4-4-4-4-2-2-4-4-*||-4-4-4-4-2-2-s-s-|
A||--2-2-4-4-2-2-4-4--||-2-2-4-4-2-2-t-t-|
E||------2-2-0-0-2-2--||-----2-2-0-0-----|

then, main riff 8x

then, main riff 4x w/little muted guitar riff:

e||-------------------||
B||-----------------4x||
G||*-----------------*||
D||*-----------------*||
A||--9-9-6--66--------||
E||-------------77-7--||
    (pm.............) 
Thanks:)
Comments