Reel Big Fish - Sr Chords & Tabs

 

Sr Chords & Tabs

Reel Big Fish Chords & Tabs

Version: 1 Type: Bass Tab 0 ratings
1 star 2 stars 3 stars 4 stars 5 stars
comments

Sr Bass Tab

Intro (00:08-00:09) 
G|-----------| 
D|-----------|Follow with Pre-Verse 
A|-----2/15--|right after 
E|-----------| 

Pre-Verse 
G|------------------------------------| 
D|------------------------------------| 
A|-2-2-----------4-1-2-2----------4-1-| 
E|-----2-2-0-0-2---------2-2-0*02-----| 

G|-------------------------------| 
D|-------------------------------| 
A|-2-2-----------4-1-2-2---------| 
E|-----2-2-0-0-2---------2-2-0*--| 

Verse 1 (00:18) 
G|----------------------------------------| 
D|----------------------------------------| 
A|-4-1-2-2-----------4-1-2-2----------4-1-| 
E|---------2-2-0-0-2---------2-2-0*02-----| 

G|------------------------------------| 
D|------------------------------------| 
A|-2-2-----------4-1-2-2----------4-1-| 
E|-----2-2-0-0-2---------2-2-0*02-----| 

G|------------------------------------| 
D|------------------------------------| 
A|-2-2-----------4-1-2-2----------4-1-| 
E|-----2-2-0-0-2---------2-2-0*02-----| 

G|-------------------------------------| 
D|-------------------------------------| 
A|-2-2-----------4-1-2-2---------------| 
E|-----2-2-0-0-2---------2-2-0-0-2--0--| 
[ Tab from: http://www.guitartabs.cc/tabs/r/reel_big_fish/sr_btab.html ]
(00:36) Bass only while drum slowly comes back 
G|-----------------------------------| 
D|-----------------------------------| 
A|-2-2----------4-1-2-2----------4-1-| 
E|-----2-2-0*02---------2-2-0*02-----| 
guitar comes back 
G|--------------------------------------------------------| 
D|--------------------------------------------------------| 
A|-2-2-----------4-1-2-2-----------4-1-2-2-------------2*-| 
E|-----2-2-0-0-2---------2-2-0-0-2---------2-2-0-0-2-2----| 

(00:48) 
G|-------|-----------------------------------| 
D|-------|-----------------------------------| p=pop 
A|-2/15-|-----------------------------------| s=slap 
E|-------|-7r2r-0r-2r/7r2r-0r-2r/7r2r-0*--| 
   p       s  s  s  s  s  s  s  s  s  s  s 

Verse 2 (00:57-00:58) 
G|----------------------------------------| 
D|----------------------------------------| 
A|-4-1-2-2-----------4-1-2-2----------4-1-| 
E|---------2-2-0-0-2---------2-2-0*02-----| 

G|----------------------------| 
D|----------------------------| 
A|-2-2-----------4-1-2-2------| 
E|-----2-2-0-0-2---------2-2*-| 

(01:07) "Please Don't go" 
G|------------------------------------| 
D|------------------------------------| 
A|-2-2-----------4-1-2-2----------4-1-| 
E|-----2-2-0-0-2---------2-2-0*02-----| 

G|------------------------------| 
D|------------------------------| "You said it!" 
A|-2-2-----------4-1-2-2--------| 
E|-----2-2-0-0-2---------2-2-0*-| 

Outro (01:15-01:16) 
G|(x3)---------------|(x1)---------4---4---| 
D|-------------------|---------2/4---2-----| 
A|-2-2-----------4-1-|-2-2---------------2-| 
E|-----2-2-0-0-2-----|-----2-2-------------|End
Comments