Reel Big Fish - Skatanic Chords & Tabs

 

Skatanic Chords & Tabs

Reel Big Fish Chords & Tabs

Version: 2 Type: Bass Tab 0 ratings
1 star 2 stars 3 stars 4 stars 5 stars
comments

Skatanic Bass Tab

                    --Bass tabs for Reel Big Fish / "Skatanic"--
                     __________________________________________

Tabbed by: WeebleWobble (igs_bro@hotmail.com)  A.K.A. Mike Tracy  6/08/99, 8:24 p.m.


The way i wrote all of this stuff out makes it a little (maybe a lot)
confusing, so it's easiest to play while listening along to the song.
Sorry for the inconvenience.

 
               (play the whole first riff twice)                     

           5x       and then           1x 
G||-------------------------||-------------------------|| 
D||----2/3-----------------o||----2/3------------------|| 
A||-0------0-3--3-2/3-2----o||-0------0-3--3-3-3-2-2-2-|| 
E||-------------------------||-------------------------|| 




+*+*+*+*+*+*+*+*+*+*+*+*+*+*+*Chorus*+*+*+*+*+*+*+*+*+*+*+*+*+*+*+*+*+*+*

G||---2---------------*-2-----------------*-2---------------*-2---------||
D||---------2-0-------|-------2-0---------|-------2-0-------|-----------||
A||-0---2/3-----3-2-0-|---2/3-----3-2-0---|---2/3-----3-2-0-|---2/3-2---||
E||-------------------*-------------------*-----------------*-----------||           

+*+*+*+*+*+*+*+*+*+*+*+*+*+*+*Chorus*+*+*+*+*+*+*+*+*+*+*+*+*+*+*+*+*+*+*                                                                          


Watchin you sleep now lookin in your window...
        3x       and then             1x
G||------------5---4--------||-------------------------||
D||------2-----------------o||------2------------------|| 
A||--0-3---3-2---2---------o||--0-3---3-3-3-3-2-2------||
E||-------------------------||-------------------------||


Watchin you sleep, nowhere to hide...
           1x
G||-----------------*-----------------*----------------||
D||-----2-----------|-----2-----------|-----2----------||
A||-0-3---3-3-3-2-2-|-0-3---3-3-5-3-2-|-0-3---3-3-3-2--||
E||-----------------*-----------------*----------------||




+*+*+*+Chorus*+*+*+


 
 Walkin up to her now she's walkin away....
        3x      and then             1x
G||------------5---4--------||-------------------------||  
D||------2-----------------o||------2------------------|| 
A||--0-3---3-2---2---------o||--0-3---3-3-3-3-2-2------||
E||-------------------------||-------------------------||   

[ Tab from: http://www.guitartabs.cc/tabs/r/reel_big_fish/skatanic_btab_ver_2.html ]
Dont be afraid, to feel my touch...
          1x
G||-----------------*-----------------*----------------||
D||-----2-----------|-----2-----------|-----2----------||
A||-0-3---3-3-3-2-2-|-0-3---3-3-5-3-2-|-0-3---3-3-3-2--||
E||-----------------*-----------------*----------------||



+*+*+*+*Chorus*+*+*+*+


I'M GONNA MAKE YOU LOVE ME....
 3x   (im not too sure about this part, but i think its right)
G||-----------------------------------------------------||
D||-2-2-2-2-3-3-3-3-5-5-5-5-3-3-3-3-2-2-2-2-2-2-2-2-2--o||
A||----------------------------------------------------o||
E||-----------------------------------------------------||

 
NO MATTER WHAT YOU SAY....
      1x
G||------------------------------------||
D||-2-2-2-2-3-3-3-3-5-5-5-5-3-3-3-3-2--||
A||------------------------------------||
E||------------------------------------||


     1x
G||-----------------------------------------------------------------------------------*-----------||
D||-2-------3-------4-------5-------7-------8-------9---------10----------11----------|-----------||
A||---3-2-3---4-3-4---5-4-5---6-5-6---7-6-7---9-8-9---10-9-10----11-10-11----12-11-12-|-0-0-3-2-1-||
E||-----------------------------------------------------------------------------------|-----------||


           5x       and then           1x    (whole riff twice)
G||-------------------------||-------------------------|| 
D||----2/3-----------------o||----2/3------------------|| 
A||-0------0-3--3-2/3-2----o||-0------0-3--3-3-3-2-2-2-|| 
E||-------------------------||-------------------------|| 

+*+*+*+*Chorus*+*+*+*+ (2x)

G||--------------||
D||-2------------||
A||---3-2-3-0----||
E||--------------||


                                                       
 ******  ****** ****** *          ****   *******   ******      ******* *******  ****** *     *                                           
 *     * *      *      *          *   *     *     *            *          *    *       *     *
 *     * *      *      *          *    *    *     *            *          *    *       *     *
 ******  ****** ****** *          *****     *     *   ****     *****      *    ******  *******              
 *   *   *      *      *          *    *    *     *      *     *          *          * *     *
 *    *  *      *      *          *   *     *     *     *      *          *          * *     *                                         
 *     * ****** ****** ******     ****   *******   *****       *       ******* ******  *     *              
Comments