Reel Big Fish - Shes Famous Now Chords & Tabs

 

Shes Famous Now Chords & Tabs

Reel Big Fish Chords & Tabs

Version: 1 Type: Tab 0 ratings
1 star 2 stars 3 stars 4 stars 5 stars
comments

Shes Famous Now Tab

   
Band:  Reel Big Fish
Song:  She's Famous Now
Album: Favourtie Noise

Tabbed by: Luke (hems182 - stillinthemaking@hotmail.com)

       p    =  pull off
       h    =  hammer
       x    =  muted string
       \    =  slide down
       /    =  slide up
       ~    =  let ring
  p.m ..... =  palm mute

i did this really quickly so excuse any mistakes - the main bits of the song are good

Intro
e:----------------------------------|
B:--------------------------888-10--|
G:--2222222-2224442-2222222-777-9---|
D:--0004440-0000000-0004440-555-7---| x2
A:----------------------------------|
E:----------------------------------|
P.m  .. ..           .. ..

Pre verse
e:--5-5--5--5--5--5--5--5--7--5--5--5--3--3--5--5---|
B:--7-7--5--5--7--7--5--5--7--7--5--5--3--3--5--5---|
G:--7-7--6--6--7--7--6--6--7--7--6--6--4--4--6--6---|
D:--7-7--7--7--7--7--7--7--7--7--7--7--5--5--7--7---|
A:--------------------------------------------------|
E:--------------------------------------------------|

Verse
e:--55-5x--55x--55x5--3333----------------------------|
B:--77-7x--55x--77x7--3333----------------------------|
G:--77-7x--66x--77x7--4444-----7-7--------------------|
D:--77-7x--77x--77x7--5555-----7-7--77--55--7777------| x2
A:-----------------------------5-5--77--55--7777------|
E:----------------------------------55--33--5555------|

e:-5-5-5-5-5-5-3-3----------------------------------|
B:-7-7-5-5-7-7-3-3----------------------------------|
G:-7-7-6-6-7-7-4-4---x2--7--------77----------------|
D:-7-7-7-7-7-7-5-5-------7-7-5-7--77----------------|
A:-----------------------5-7-5-7--55--23-5-----x\---|
E:-------------------------5-3-5-----------3--------|

pre chorus
e:-2-2-2-2--3-3-3-3--5-5-5-5--2-2-2-2--3-3-3-3--------------------|
B:-2-2-2-2--3-3-3-3--5-5-5-5--3-3-3-3--3-3-3-3--------------------|
G:-4-4-4-4--4-3-3-3--6-6-6-6--4-4-4-4--4-4-4-4--------------------|
D:-4-4-4-4--5-3-3-3--7-7-7-7--4-4-4-4--5-5-5-5--7-7--12-12--5-5---|
A:----------------------------------------------7-7--10-10--5-5---|
E:----------------------------------------------5-5---------3-3---|
[ Tab from: http://www.guitartabs.cc/tabs/r/reel_big_fish/shes_famous_now_tab.html ]
Chorus pt.1
e:---------------------------|
B:---------------------------|
G:-77777---------------------|
D:-77777-44444-55555-77777---| x2
A:-55555-44444-55555-77777---|
E:-------22222-33333-55555---|

Chorus pt.2
e:----------------------------------------------------|
B:----------------------------------------------------|
G:----------------------------------------------------|
D:------------5555-7-xxx-----------575----5555-7------|
A:----5-7-5---5555-7-xxx-55-23-5-------75-5555-7--7-7-|
E:--5-------7-3333-5-xxx---------3--------3333-5-5----|

pre verse
verse
pre chorus
chorus
intro

solo
e:-5-7-5----------------------------------5-------------|
B:--------8-7-5--------------------------3--------------|
G:----------------------------------------------7-9-7---|
D:------------------------------------------7-9------9--|
A:-----------------5-3-2-3-5--7-5-4-5-7-----------------|
E:---------------3-----------5--------------------------|

e:--10-8-7-8-10------12-10-9-10-12--------5------------------------------|
B:8---------------10-------------------------7---------------------------|
G:--7 -5-4-5-7 ------9 -7 -6-7 -9 -------------7-4-------7-5-4-5-7-------
D:5---------------7 ---------------77-9-7----------7---5-----------------|
A:---------------------------------77-9-7----------------5-3-2-3-5-------|
E:---------------------------------55-7-5--------------3-----------------|

End
e:-----------------------------------------|
B:-----------------------------------------|
G:-777777--------------------------777777--|
D:-777777--444444--555555--777777--777777--|
A:-555555--444444--555555--777777--555555--|
E:---------222222--333333--555555----------|

e:----------------------------------------------|
B:----------------------------------------------|
G:----------------------------------------------|
D:--444444--555555--75454--5555--7----5555--7---|
A:--444444--555555---------5555--7-X\-5555--7---|
E:--222222--333333---------3333--5----3555--5---|

e:---------------------------------------------------------------------------|
B:---------------------------------------------------------------------------|
G:----------------------------------------------2222222-2224442-2222222-7-2--|
D:-5----7-xxxx------------------------5----7----0004440 0000000-0004440-5-0--|
A:-5-x4-7-xxxx-55---5--5-7-5------5-x5-7---5-7-------------------------------|
E:-3----5-xxxx----78-3--------7-5-3-----5-5----------------------------------|
Comments