Reel Big Fish - She Has A Girlfriend Now Chords & Tabs

 

She Has A Girlfriend Now Chords & Tabs

Reel Big Fish Chords & Tabs

Version: 2 Type: Tab 0 ratings
1 star 2 stars 3 stars 4 stars 5 stars
comments

She Has A Girlfriend Now Tab

   
Reel Big Fish
She Has a Girlfriend Now
thanks to Joseph (Moseph529@aol.com) for this tab!
Little horn transcription by GuzzoSizeXL@aol.com

- Hey, this tab was already very well done by Moseph529@aol.com, but i thought
I'd add the little part the horn plays along with the intro chords, 
not really that usefull, but still fun nonetheless. Check out my tab 
for Somebody Hates Me.

Horn part during intro:
e|--------------||-------------------|
B|--------------||-------------------|
G|*--8---5--8---||-5----------------*|
D|*----8--------||---8~---5-5-------*|
A|--------------||------6-----8--6---|
E|--------------||-------------------|
intro and riff x:(clean)
   D#             G#   A#
e|--------------|-------------|
B|--------------|-------------|
G|-8--8---5-8---|-5-5--7-7----|
D|-8----8-------|-6-6--8-8----|
A|-6------------|-6-6--8-8----|
E|--------------|-4-4--6-6----|
main riff A:
     D#        Cm        G#    A#
e||--6-6-x-6-x-3-x-3-|-x-4-x-4/6-6-x-6--||
B||--8-8-x-8-x-4-x-4-|-x-4-x-4/6-6-x-6--||
G||*-8-8-x-8-x-5-x-5-|-x-5-x-5/7-7-x-7-*||
D||*-8-8-x-8-x-5-x-5-|-x-6-x-6/8-8-x-8-*||
A||--6-6-x-6-x-3-x-3-|-x-6-x-6/8-8-x-8--||
E||------------------|------------------||
main riff B:
     D#        Cm          G#    A#
e||--6-6-x-6-x-8--x-8--|-x-4-x-4/6-6-x-6--||
B||--8-8-x-8-x-8--x-8--|-x-4-x-4/6-6-x-6--||
G||*-8-8-x-8-x-8--x-8--|-x-5-x-5/7-7-x-7-*||
D||*-8-8-x-8-x-10-x-10-|-x-6-x-6/8-8-x-8-*||
A||--6-6---6-----------|-x-6-x-6/8-8-x-8--||
E||--------------------|------------------||
[ Tab from: http://www.guitartabs.cc/tabs/r/reel_big_fish/she_has_a_girlfriend_now_tab_ver_2.html ]
after intro, play main riff A 4x
then verse, play main riff B 3x, then riff x
next verse, play main riff A 4x,
for chorus, play main riff A 3x, then 
riff y:
   G#  A# 
e|---------------|
B|---------------|
G|-4---7-7--7-7--|
D|-6---8-8--8-8--|
A|-6---8-8--8-8--|
E|-4---6-6--6-6--|
main riff A 3x, then riff x,
then main riff A again 4x,
for trombone solo, play main riff B 4x,
then play main riff A 3x, then riff y,
main riff A 3x, riff x 
double-time:
     D#                Cm                G#                A#              3x
e||------------------|-----------------|-----------------|------------------||
B||--8-8-x-8-x-8-x-8-|-x-4-x-4-x-4-x-4-|-4-4-x-4-x-4-x-4/|-6-6-x-6-x-6-x-6--||
G||*-8-8-x-8-x-8-x-8-|-x-5-x-5-x-5-x-5-|-5-5-x-5-x-5-x-5/|-7-7-x-7-x-7-x-7-*||
D||*-8-8-x-8-x-8-x-8-|-x-5-x-5-x-5-x-5-|-6-6-x-6-x-6-x-6/|-8-8-x-8-x-8-x-8-*||
A||--6-6---6---6---6-|-x-3---3---3---3-|-6-6---6---6---6/|-8-8---8---8---8--||
E||------------------|-----------------|-----------------|------------------||
   D#                Cm                G#                A#  G#  A#
e|-6-6-x-6-x-6-x-6-|-3-3-x-3-x-3-x-3-|-4-4-x-4-x-4-x-4-|--------------|
B|-8-8-x-8-x-8-x-8-|-4-4-x-4-x-4-x-4-|-4-4-x-4-x-4-x-4-|-(distorted)--|
G|-8-8-x-8-x-8-x-8-|-5-5-x-5-x-5-x-5-|-5-5-x-5-x-5-x-5-|--------------|
D|-8-8-x-8-x-8-x-8-|-5-5-x-5-x-5-x-5-|-6-6-x-6-x-6-x-6-|-8---6---8----|
A|-6-6---6---6---6-|-3-3---3---3---3-|-6-6---6---6---6-|-8---6---8----|
E|-----------------|-----------------|-----------------|-6---4---6----|
     D#    Cm G#         A# G# A#    D#    Cm A#
e||---------------|-------------7x||--------------|-------------------|
B||---------------|---------------||--------------|-------------------|
G||*-8-8-\-5------|--------------*||-8-8-\-5------|-------------------|
D||*-8-8-\-5--6---|-(6)--8--6--8-*||-8-8-\-5--6---|-(6)---------------|
A||--6-6-\-3--6---|-(6)--8--6--8--||-6-6-\-3--6---|-(6)---------------|
E||-----------4---|-(4)--6--4--6--||----------4---|-(4)---------------|
notes: As you see, the main riff, which is played thru most of the song, is
	 played 2 different ways.  Aaron plays riff A throughout the whole 
       song in a live video I have. Just thought u should know.  So play
	 play whatever ya want, enjoy!
Comments