Reel Big Fish - She Has A Girlfriend Now Chords & Tabs

 

She Has A Girlfriend Now Chords & Tabs

Reel Big Fish Chords & Tabs

Version: 3 Type: Bass Tab

She Has A Girlfriend Now Bass Tab

   
-------------------------------------------------------------------------------
          	     SHE HAS A GIRLFRIEND NOW - Reel Big Fish
-------------------------------------------------------------------------------

Tabbed by: clarrrk
Tuning: EADG
Key: Eb

INTRO / part between verses
---------------------------|
---------------------------|
-6---6-----6---------------|
-------6-8-----44-66-------|
[ Tab from: http://www.guitartabs.cc/tabs/r/reel_big_fish/she_has_a_girlfriend_now_btab_ver_3.html ]
Verse/Chorus/breakdown
  ----------------------------------------|
  -----8----------------------------------|
  -6-6---6------10---------6-------8-5-4--|
  -------------8--8----4-4---4---6--------|

“She said she’d found somebody…” x4 / Trombone solo
  ------------------------------------------|
  -----8------------------------------------|
  -6-6---6------10---------6---------8------|
  -------------8--8----4-4---4---6-6---6----|


outro	     8th/final time
  ---------------------     ------------------|
  ---------------------     ------------------|
  --6---6-5-6----------x 7  --6---6-----------|
  -------------6--4--6      --------6--4~-----|


*try to be different but i guess that's nothing new*