Reel Big Fish - Setup Chords & Tabs

 

Setup Chords & Tabs

Reel Big Fish Chords & Tabs

Version: 1 Type: Tab 0 ratings
1 star 2 stars 3 stars 4 stars 5 stars
comments

Setup Tab

   
Reel Big Fish
The Setup

Tabbed by Jonathon Howe   Email - jonohowe31@hotmail.com
------------------------------------------------------
I haven't found this song tabbed correctly by anyone, so here it is. 
------------------------------------------------------

KEY:
 \ = Slide Down
 / = Slide up
 ~ = Sustain
 h = Hammer on
 p = Pull off
 b = Bend


  Intro:	 
E|---------------|---------------------------------|	  |---------|
B|---------------|---------------------------------|      |---------|
G|---------------|-----------------2---2-----------|      |---------|
D|---------------|-2---2-----------2---2-----------| X 4  |-2--2~~~~|
A|-4-3-2-0-------|-2---2-----------0---0-4-3-2b----|      |-2--2~~~~|
E|---------2-3-4-|-0---0-4-3-2b--------------------|      |-0--0~~~~|


  Riff A:
E|---------------------------------------------------------|
B|---------------------------------------------------------|
G|--4---4--------------------------------------------------|
D|--4---4---1-2-2-2-2-2-1-----2---2------------------------| X 6
A|--2---2-----------------2---2---2----6/7--7-7--6/7--7-7--|
E|----------------------------0---0----4/5--5-5--4/5--5-5--|
  
                                                                      
  Verse:
E|--------------------------------------------------------------------------------------|
B|--------------------------------------------------------------------------------------|
G|--------------------------------------------------------------------------------------|
D|--------------------------------------------------------------------------------------|
A|-9-----6-7------7-9------6-7-----7-9--x-x--x-x-6-7--x-x--x-x-7-9--x-x--x-x-6-7777777--|
E|-7-----4-5------5-7------4-5-----5-7--x-x--x-x-4-5--x-x--x-x-5-7--x-x--x-x-4-5555555--|
      									      pm......
   								     
  Chorus:					  Post Chorus:
E|--------------------------------------|       |------------------|
B|--------------------------------------|       |------------------|
G|-----------2--2---4--4--4--4---2---2--|       |------------------|
D|-2--2-2-2--2--2---4--4--4--4---2---2--| X 3   |-2---2------------|
A|-2--2-2-2--0--0---2--2--2--2---0---0--|       |-2---2--5-6-7~~~--|
E|-0--0-0-0-----------------------------|       |-0---0--3-4-5~~~--|
      

  Riff A  X 4

  Verse  

  Chorus & Post Chorus

[ Tab from: http://www.guitartabs.cc/tabs/r/reel_big_fish/setup_tab.html ]
  Bridge:
E|------------------------------------------------------------------|
B|------------------------------------------------------------------|
G|------------------------------------------------------------------|
D|-----------2-2~--2-1--------------2-2~--1-2-4------------2-2~~2~--|
A|-4~-4-xx-4-2-2~------0--4~-4-xx-4-2-2~---------4~-4-xx-4-2-2~~2~--|
E|-2~-2-xx-2-0-0~---------2~-2-xx-2-0-0~---------2~-2-xx-2-0-0~~0~--|
        pm....                 pm....		      pm....
 
E|---------------------------------------------------------------------------------|
B|---------------------------------------------------------------------------------|
G|---------------------------------------------------------------------------------|
D|---------------------------------------------------------------------------------|
A|-6---6666-4---7--7777-6---6--6666-4---7--7777-6---6-6666-4---7-7777777777--8--8--|
E|-4---4444-2---5--5555-4---4--4444-2---5--5555-4---4-4444-2---5-5555555555--6--6--|
       pm...       pm...       pm...       pm...      pm...       pm......  


  Riff A (Variation):                                     
E|--------------|-------------------------------------------------|
B|--------------|-------------------------------------------------|
G|--------------|-------------9--9\-------------------99999999999-|
D|-9~~\--Pause--|-9--9\-------9--9\-------9--9\-------99999999999-|
A|-9~~\---------|-9--9\-------7--7\-------9--9\-------77777777777-|
E|-7~~\---------|-7--7\-------------------7--9\-------------------|

       
  Solo:   (2nd Guitar plays Riff A throughout)   
E|----------------------------------------------------------------------|
B|--------------------------------------12-14b-12-14-12-----------------|
G|-11/13-11~----9--8-9-8---8h9-8h9-9/11---------------------------------|
D|----------------------9------------------------------------9-9----9-9-|
A|-------------------------------------------------------9h11---9h11----|
E|----------------------------------------------------------------------|

E|----------------------------------------------------------------7777777-|
B|----------------------------------------------------------------7777777-|
G|--------------------------11------------------11-11-------------8888888-|
D|-11b--9--9------9-9----11b----9-9-------9-9----9--9-----------999999999-|
A|------------9h11---9h11-------------9h11---9h11------11-9-11--999999999-|
E|--------------------------------------------------------------777777777-|
                                                                 pm..... 

  Chorus & Post Chorus X 2


  Outro:
E|------------------------------|------------------------------|
B|------------------------------|------------------------------|
G|------------------------------|-----------------2---2--------|
D|------------------------------|-2---2-----------2---2--------|  X 4
A|-4-3-2-0-------4--3-2-0-------|-2---2-----------0---0-4-3-2b-|
E|---------2-3-4----------2-3-4-|-0---0-4-3-2b-----------------|

E|---------------------------|
B|---------------------------|
G|----------------------2~~~-|
D|-2--2-----------------2~~~-|
A|-2--2-----------------0~~~-|
E|-0--0--4--3--2--3--4-------|
  rall..................






   ____________                  _________   
  |           /                 /         \
  |    ______/                 /   _____   \  _                                         
  |   |____  ______________   /   /     \___\| |          __                    _______
  |       /  \___      ___/  /   /           | |         /  \               _  |  _____/
  |    __/ ___   |    /      \   \        ___| |____    / /\ \      _   _ // \\|  |_
  |   |   /   \  |   /        \   \______/  /|   _  |  /  __  \    / | //||    |   _|
  |   |  / /_\ \ |  /          \           / |  | | | /  /  \  \  //||// ||    |  |__  
  |___| / /   \ \|_/            \_________/  |  | | |/  /    \  \// |_/   \\_//|_____\
Comments