Reel Big Fish - Sell Out Chords & Tabs

 

Sell Out Chords & Tabs

Reel Big Fish Chords & Tabs

Version: 2 Type: Tab 0 ratings
1 star 2 stars 3 stars 4 stars 5 stars
comments

Sell Out Tab

   
band: reel big fish
song: sell out
tabbed by: itchie

I saw the band play this song, so I'am quiet sure about the chords and the taps.

Intro: 

G# G# G G G# Etc.....  play these with powerchords 
 

e	|------------------------------------------------|
B	|------------------------------------------------|
G	|------------------------------------------------|     3X
D	|-------------------5----8---------3----6--------|
A	|-6-6-5-5-6-----6---------------4----------------|
E	|-4-4-3-3-4--------------------------------------|


PostChorus:

e|----------------------------------------
B|----------------------------------------
G|------------------6------8--------------
D|-----6------8-----6------8--------------
A|-----6------8-----4------6--------------
E|-----4------6---------------------------


Verse:

       G#    A#    C#     D# 
e|-----4------6-----4------6--------------|
B|-----4------6-----6------8--------------|
G|-----5------7-----6------8--------------|
D|-----6------8-----6------8--------------|
A|-----6------8-----4------6--------------|
E|-----4------6---------------------------|

-upstrokes-
  
[ Tab from: http://www.guitartabs.cc/tabs/r/reel_big_fish/sell_out_tab_ver_2.html ]
PreChorus:
When he says: "your gonna go to the record store....." 

Its
     G#     F#    G#     A# 
e|---4------2-----4------6-------------------|
B|---4------2-----4------6-------------------|
G|---5------3-----5------7-------------------|
D|---6------4-----6------8-------------------|
A|---6------4-----6------8-------------------|
E|---4------2-----4------6-------------------|
-upstrokes-

Chorus:
When he says: "Sellout!! With me oh yeah!" 

Its
    G#   F#   G#   F#
e|--4----2----4----2-------------|
B|--4----2----4----2-------------|
G|--5----3----5----3-------------|
D|--6----4----6----4-------------|
A|--6----4----6----4-------------|
E|--4----2----4----2-------------|
-upstrokes-

after the Chorus go to the postchorus.


After the second Chorus go back to the intro and then:
the final part when he says: "And I dont think it`ll be so bad" 

Its:
    A#   C#    G#
e|--6----9-----4-------|
B|--6----9-----4-------|
G|--7----10----5-------|
D|--8----11----6-------|
A|--8----11----6-------|
E|--6----9-----4-------|

After this its back the prechorus and then... the end!

If there is something wrong just mail me: stijnswaanen@hotmail.com
Comments