Reel Big Fish - Scotts A Dork Chords & Tabs

 

Scotts A Dork Chords & Tabs

Reel Big Fish Chords & Tabs

Version: 1 Type: Tab 0 ratings
1 star 2 stars 3 stars 4 stars 5 stars
comments

Scotts A Dork Tab

   
T1: Geoff Morrissey, pmorrissey03@snet.net, Reel Big Fish, Scott's A
Dork, 1998

S1: 
Intro: (Bass)
G-----------------------------------|
D.-----8-8-6-6---------------------.|
A.-------------8-8-6-6-5-5-6-6-8-8-.|
E--6-6------------------------------|

Guitar:
E---------------------------------|
B-----------------9-9-9-9-9-9-9-9-|
G-----------------8-8-8-8-8-8-8-8-|
D---------6-6-----7-7-7-7-7-7-7-7-|
A-----8-8-----8-8-8-8-8-8-8-8-8-8-|
E-6-6-----------------------------|

Pre-Verse:
E-x-6-x-6-x-6-x-6-x-6-x-6-x-6-x-6-|-x-6-x-6-x-6-x-6-x--8-x--8-x--8-x--8-|
B-x-6-x-6-x-6-x-6-x-6-x-6-x-6-x-6-|-x-8-x-8-x-8-x-8-x-10-x-10-x-10-x-10-|
G-x-7-x-7-x-7-x-7-x-7-x-7-x-7-x-7-|-x-8-x-8-x-8-x-8-x-10-x-10-x-10-x-10-|
D---------------------------------|-------------------------------------|
A---------------------------------|-------------------------------------|
E---------------------------------|-------------------------------------|

E-x-6-x-6-x-6-x-6-x-6-x-6-x-6-x-6-|-x-6-x-6-x-6-x-6---------------------|
B-x-6-x-6-x-6-x-6-x-6-x-6-x-6-x-6-|-x-8-x-8-x-8-x-8---------------------|
G-x-7-x-7-x-7-x-7-x-7-x-7-x-7-x-7-|-x-8-x-8-x-8-x-8---------------------|
D---------------------------------|-------------------------------------|
A---------------------------------|-------------------------------------|
E---------------------------------|-------------------------------------|

Verse:
E--x-6-x-x-x-6-x-x-x-6-x-x-x-6-x-x-|-x-6-x-x-x-6-x-x-----------------|
B--x-6-x-x-x-6-x-x-x-6-x-x-x-6-x-x-|-x-6-x-x-x-6-x-x-----------------|
G.-x-7-x-x-x-7-x-x-x-7-x-x-x-7-x-x-|-x-7-x-x-x-7-x-x----------------.|
D.---------------------------------|-----------------x-3-3\7-7---8\-.|
A----------------------------------|-----------------x-3-3\7-7---8\--|
E----------------------------------|-----------------x-1-1\5-5---6\--|

Pre-Chorus:
E-x-6-x-6-x-6-x-6-x-6-x-6-x-6-x-6-|-x-6-x-6-x-6-x-6-x--8-x--8-x--8-x--8-|
B-x-6-x-6-x-6-x-6-x-6-x-6-x-6-x-6-|-x-8-x-8-x-8-x-8-x-10-x-10-x-10-x-10-|
G-x-7-x-7-x-7-x-7-x-7-x-7-x-7-x-7-|-x-8-x-8-x-8-x-8-x-10-x-10-x-10-x-10-|
D---------------------------------|-------------------------------------|
A---------------------------------|-------------------------------------|
E---------------------------------|-------------------------------------|
[ Tab from: http://www.guitartabs.cc/tabs/r/reel_big_fish/scotts_a_dork_tab.html ]
E-x-5-x-5-x-5-x-5-x-5-x-5-x-5-x-5-|-x-6-x-6-x-6-x-6-x-6-x-6-x-6-x-6-|
B-x-6-x-6-x-6-x-6-x-6-x-6-x-6-x-6-|-x-6-x-6-x-6-x-6-x-6-x-6-x-6-x-6-|
G-x-5-x-5-x-5-x-5-x-5-x-5-x-5-x-5-|-x-7-x-7-x-7-x-7-x-7-x-7-x-7-x-7-|
D---------------------------------|---------------------------------|
A---------------------------------|---------------------------------|
E---------------------------------|---------------------------------|





E-x-5-x-5-x-5-x-5-x-5-x-5-x-5-x-5-|-x-6-x-6-x-6-x-6------------|
B-x-6-x-6-x-6-x-6-x-6-x-6-x-6-x-6-|-x-6-x-6-x-6-x-6------------|
G-x-5-x-5-x-5-x-5-x-5-x-5-x-5-x-5-|-x-7-x-7-x-7-x-7------------|
D---------------------------------|-----------------x\-\-\-\---|
A---------------------------------|-----------------x\-\-\-\---|
E---------------------------------|-----------------x\-\-\-\---|

Chorus:          Play 3x
E-----------------------|--------------------|
B-----------------------|--------------------|
G.---------------------.|--------------------|
D.-8-8--x-8-/-5-5--x-5-.|-8-8--x-8-/-5-5-/-3-|
A--8-8--x-8-/-5-5--x-5--|-8-8--x-8-/-5-5-/-3-|
E--6-6--x-6-/-3-3--x-3--|-6-6--x-6-/-3-3-/-1-|

Play Pre-Verse
Play Verse
Play Chorus

Bridge:
E------------------|----------------------------------|
B------------------|----------------------------------|
G.-----------------|---------------------------------.|
D.-8-8-8-8-8-8-8-8-|------10-8-7/8\5------10-8-7\8/5-.|
A--6-6-6-6-6-6-6-6-|-8h10------------8h10-------------|
E------------------|----------------------------------|
   PM-------------

E------------------|-----------------------------------------|
B------------------|-------13-11-10\11/8-------13-11-10\11/8-|
G------------------|-10h12---------------10h12---------------|
D--8-8-8-8-8-8-8-8-|-------10--8--7\-8/5-------10--8--7\-8/5-|
A--6-6-6-6-6-6-6-6-|--8h10----------------8h10---------------|
E------------------|-----------------------------------------|
   PM-------------

E------------------|----------------------------------------------|
B------------------|--------------------11-10---------------------|
G------------------|-14---12-10-8--14---------12-10-9-10-let ring-|
D--8-8-8-8-8-8-8-8-|----------------------------------------------|
A--6-6-6-6-6-6-6-6-|----------------------------------------------|
E------------------|----------------------------------------------|
   PM-------------

Play Pre-Chorus
Play Chorus 
Then Play Chorus but up a step (i.e. Bb is now C)
Play Pre-Verse but also up a step

Outro:
E-x-6-x-x-x-6-x-x-x-6-x-x-x-6-x-x-|-x-6-x-x-x-6-x-x-x-6-x-------------|
B-x-6-x-x-x-6-x-x-x-6-x-x-x-6-x-x-|-x-6-x-x-x-6-x-x-x-6-x-------------|
G-x-7-x-x-x-7-x-x-x-7-x-x-x-7-x-x-|-x-7-x-x-x-7-x-x-x-7-x-------------|
D---------------------------------|------------------------4------7-8-|
A---------------------------------|------------------------4------7-8-|
E---------------------------------|------------------------2------5-6-|

Comments