Reel Big Fish - Sayonara Senorita Chords & Tabs

 

Sayonara Senorita Chords & Tabs

Reel Big Fish Chords & Tabs

Version: 1 Type: Tab 0 ratings
1 star 2 stars 3 stars 4 stars 5 stars
comments

Sayonara Senorita Tab

Reel Big Fish
"Sayonara Senorita"
Cheer Up

Intro chords:
e-4--5--9--7--
B-5--5--9--7--
G-4--6--8--6--
D----7--------
A-------------
E-------------

Verse:
e-----------------------------
B-----------------------------
G-----------------------------
D---6-9-----------4-7---------
A-7--------4-7--5--------4-7--
E--------5-------------5------

Pre-chorus:
e-2x--5x--2x----------------
B-2x--5x--2x--7777-99-11-9--
G-3x--6x--3x--7777-99-11-9--
D-4x--7x--4x--5555-77--9-7--
A---------------------------
E---------------------------

Chorus 1:
e--0-12-9---------------------0-12-9----------------
B-9-------10-9-10-12-9------9--------10-9-10-12-----
G----------------------9-11---------------------11--
D---------------------------------------------------
A---------------------------------------------------
E---------------------------------------------------
[ Tab from: http://www.guitartabs.cc/tabs/r/reel_big_fish/sayonara_senorita_tab.html ]
e---------------------------------------------
B--------------------9-10-12------------------
G-13-13-13-11-9----9---------9-11-9-9-9-11-9--
D---------------11----------------------------
A---------------------------------------------
E---------------------------------------------

e-17-16-14-14-14-16-16-14--
B--------------------------
G--------------------------
D--------------------------
A--------------------------
E--------------------------

Chorus 2: Same as chorus 1, but ends different.
e-----------------------------
B-10-10-10-12-10-10-10-12-10--
G-----------------------------
D-----------------------------
A-----------------------------
E-----------------------------

Interlude 1:
e------------------------------------
B------------------------------------
G-4xx4--2xx2-/----------2222-44-6-4--
D-4xx4--2xx2-/-44-22-44-2222-44-6-4--
A-2xx2--0xx0-/-44-22-44-0000-22-4-2--
E--------------22-00-22--------------
   play 3x
repeat the intro chords

Interlude 2:
e-----------------------------
B-----------------------------
G-----------------------------
D---9-------------6-----------
A-7---7----7----4---4----9----
E--------5---5---------7---7--

Outro riff:
e---4------5------9------7----
B-----5------5------9------7--
G-4------6------8------6------
D-----------------------------
A-----------------------------
E-----------------------------

End note:
e--4~--
B--5~--
G--4~--
D------
A------
E------
Comments