Reel Big Fish - Say Ten Chords & Tabs

 

Say Ten Chords & Tabs

Reel Big Fish Chords & Tabs

Version: 2 Type: Bass Tab 0 ratings
1 star 2 stars 3 stars 4 stars 5 stars
comments

Say Ten Bass Tab

   
----------------------------------------------------------------------------		                      
                 Say "Ten" bassline - Reel Big Fish
----------------------------------------------------------------------------
By:Emelia & Brett (jessie@mail2.quiknet.com)

		from Joseph's RBF Page at:
		http://www.geocities.com/SunsetStrip/Studio/3144/
============================================================================
      *PLEASE DO NOT PUT THESE TABS ON YOUR OWN PAGE W/0 PERMISSION.*

Verse (4x)
----------------|----------------|----------------|-------------|
----------------|---------7------|-------7----7-7-|--4----------|
------4-7-4-----|-------9---9-7--|--5-5-----5-----|-----7-4-----|
-5-5---------5--|--7-7-----------|----------------|---------7---|

[ Tab from: http://www.guitartabs.cc/tabs/r/reel_big_fish/say_ten_btab_ver_2.html ]
---------------|----------------|----------------|--------9-----|
---------------|---------7------|-------7---7-7--|--9/11--------|
-----4-7-4-----|-------9---9-7--|--5-5----5------|--------------|
-5-5--------5--|--7-7-----------|----------------|--------------|


Bridge (repeats)
---------------12------12------12--|----------------------------------|
-------------------12------12------|----------------------------------|
-----------------------------------|----------------------------------|
-0-0-0-0-2-2-----------------------|--0-0-0-0-2-2----3 \  ---3 \-/----|


Fast Part (...Let the blood run down my jaw..)
-----------|-----------| Repeat  |------------|------------|------------|
-----------|-----------|         |------------|------------|------------|
-0000-3333-|-5555-7777-|  (4x)   |------------|------------|------------|
-----------|-----------|         |--7777-6666-|--7777-6666-|--7777-6666-|

-----------|
-----------|
-----------|
--7777-66--|


Ending
---------------|
---------------|
---------------|
--0-0-0-0-2-2--|



The End...Check the song to find out timing and # of times the verse is
played and stuff. Enjoy!
~Em

Comments