Reel Big Fish - Join The Club Chords & Tabs

 

Join The Club Chords & Tabs

Reel Big Fish Chords & Tabs

Version: 1 Type: Bass Tab 0 ratings
1 star 2 stars 3 stars 4 stars 5 stars
comments

Join The Club Bass Tab

Song:join the club
band:reel big fish
Album:turn the radio off
tabbed by:andy ( of the shecklenburgs)




intro
G:---------------------------------------------------------------
D:--------------------------------------------------------------
A:---------------------------------------------------------------
E:--------------5 5-----------------------------------------------
riff1
G:---------------------------------------------------------------
D:-----------------------------55 4h5p4----------------------------------
A:------------9 7---------------------------------------------------
E:---555-------------------------------------------------------

G:---------------------------------------------------------------
D:---------------------------------------------------------------
A:------   9 7-------12 12 12  10 9 7-------------------------------
E:-555--------------------------------------------------------------
[ Tab from: http://www.guitartabs.cc/tabs/r/reel_big_fish/join_the_club_btab.html ]
main part
G:---------------------------------------------------------------
D:--------------------------------------------------------------
A:-----457---------------------------------------------------------
E:---5-----------------------------------------------------------
little ditty in the middle
G:----------------------------------9-----9------------------------
D:-----------------------------7--9-9--9--9---------------------------
A:-------44 55 77---44 5--7-----7-------------------------------------
E:----77------------77-----------------------------------------------


sax solo
G:---------------------------------------------------------------
D:-----------------------------------------------------------4577754----47775445         457754 
A:------455---------455------45p4h5---------4555------------555---------555--------455-55
E:555------24555-----2555----------24555------------------------------------------555


Comments