Reel Big Fish - Im Cool Chords & Tabs

 

Im Cool Chords & Tabs

Reel Big Fish Chords & Tabs

Version: 2 Type: Bass Tab 0 ratings
1 star 2 stars 3 stars 4 stars 5 stars
comments

Im Cool Bass Tab

Artist: Reel Big Fish
Song: I'm Cool
Album: Why Do They Rock So Hard?
Tabbed By: Dan (Lamar148@aol.com)

This is a sweet song, and a better version of their secret song on 
"Turn The Radio Off". It was actually pretty easy to figure out, so
I was confused as to why no one else has put it out yet. Don't let 
all the notes scare you, its a slower song, so its not that hard. 
Anyway, here is my best shot, I'm pretty sure it's acurate, but if you
have any sugguestions, email me. Here we go...

~ = hold note
Intro:(just guitar then bass)
G:----------------------------------------------------------------
D:------1-4---------------1-4------------1-4--------------1-4-----
A:-22-2-----22-2-----22-2------------2-2-----2-2-----2-2----------
E:---------------4-2----------0-0-2--------------4-2--------------
intro continued...
G:----------------------------------------------------------------
D:-----------------1-4---------------1-4--------------------------
A:------------22-2-----22-2-----22-2------------------------------
E:-2-2-0-2-0----------------4-2----------0-0-2--------------------
[ Tab from: http://www.guitartabs.cc/tabs/r/reel_big_fish/im_cool_btab_ver_2.html ]
Verse:"You know I'm Cool when all the guys..."
G:--9~--------4-----------------------------9~---------4----------
D:--------2-2---2--------1-4---------------9~------2-2---2--------
A:----------------2--2-2---------4-2-----------------------2--2-2-
E:---------------------------0-2-----4----------------------------
verse continued...
G:--------------------------4-3---------------9-8--------------11-
D:-1-4-66-4-------2-2--4-4------4-4--2-2--4-4-----9-9--------11---
A:----------6-4----------------------------------------77-7-9-----
E:----------------------------------------------------------------

Chorus:"Yeah Yeah Yeah..."
G:----------------------------------------------------------------
D:----------1-2-2--2-1----------------------------1-2-2--2-1------
A:-2-2--2-4------------4-2-2-----4-4-4-4-2-2--2-4------------4-2--
E:---------------------------2-2----------------------------------
chorus continued...
G:--------3-6-4-3-------------------------------------------------
D:------4---------2-2-4-------------------------------------------
A:-2-2------------------------------------------------------------
E:----------------------------------------------------------------

Bridge:
G:---9~--------4-4---------4-4---9~-----4-4---------4-4-----------
D:-9~------2-2-----2-4-2-4-----9~---2-2-----2-4-2-4-----2-2-4-4---
A:----------------------------------------------------------------
E:----------------------------------------------------------------
bridge continued...
G:-4-3--------------------------------11--------------------------
D:-----4-4--2-2-4-4--2-1------------11----------------------------
A:-----------------------2-2--77-7-9------------------------------
E:----------------------------------------------------------------

Ordering:
Intro    1x
Verse	 1x
Chorus   1x
Verse    1x
Chorus	 1x
Bridge   1x
Chorus   1x
Verse    1x
Chorus   Until fades out

Well, that wasn't too bad, and other than the timings of each note, I
think its a pretty acurate tab, but like I said, if you have any 
questions or comments, email me at Lamar148@aol.com Thanks!
Comments