Reel Big Fish - Ill Never Be Chords & Tabs

 

Ill Never Be Chords & Tabs

Reel Big Fish Chords & Tabs

Version: 1 Type: Bass Tab 0 ratings
1 star 2 stars 3 stars 4 stars 5 stars
comments

Ill Never Be Bass Tab

Song: I'll Never Be
Artist: Reel Big Fish
Album: Turn The Radio Off
Tabbed By: Dan (Lamar148@aol.com)

Hey! This is my favorite RBF song from this cd, so I took the liberty
of tabbing it. I hope everyone likes it, here we go...

p=pop /=slide up \=slide down >=play many times
Intro:
   p      p      p      p
G--4/6\---4/6\---4/6\---4/-----------------
D------------------------------------------
A------------------------------------------
E------------------------------------------
[ Tab from: http://www.guitartabs.cc/tabs/r/reel_big_fish/ill_never_be_btab.html ]
Verse 1:                 (Fill)
G----------------------*----------------5------
D------5---5-7---------*------5----5--7----7---
A--------7-----7-5--4--*--------7--------------
E-5-5------------------*-5-5-------------------

Verse 2:
G----------------------------------------
D----------------------------------------
A-------5-------5-------------------5----
E-5>-3>---3>-5>---3>-5>-3>-5>-3>-5>------

Verse 3:
G-----------------------
D---4---------5---------
A-5------5--7-----4-----
E-----7---------5-------

Chorus:
G----------------------------
D----------------------------
A--5>------------------------
E------5>--7>--3>------------

Ok, I"m prett sure everything is right. It sounds like there is 
a little bit of slapping and popping toward the end of the Verse 2
but I just play it like that. The fill is played on the 4th time
through, listen to the cd to hear it. If you have any questions
or comments email me. THanks!
Comments