Reel Big Fish - I Know You Too Well To Like You Anymore Chords & Tabs

 

I Know You Too Well To Like You Anymore Chords & Tabs

Reel Big Fish Chords & Tabs

Version: 1 Type: Bass Tab 0 ratings
1 star 2 stars 3 stars 4 stars 5 stars
comments

I Know You Too Well To Like You Anymore Bass Tab

   
These tabs were originally tabbed by Robert Day. Go check him out on youtube. He does awesome
covers http://www.youtube.com/user/thanktrebor7/videos

Reel Big Fish - I know You Too Well To Like You Anymore
Album: Candy Coated Fury

listen to the song to get the rhythm

opening: 0:00 - 0:08
G----------------------------------|
D----------------------------------|
A-----------------------------4---4|
E-4--4-----1---1-----2---2---------| x2

chorus: 0:08-0:25
G--------------------------------------------------|
D--------------------------------------------------|
A---------------------------4---4--4-----6--4--3---|
E-4---4--4-----1---1--1---------------------------6| x2

G--------------------------------------------------|
D--------------------------------------------------|
A--------------3---3--3-1-3-4---4--4-3-4-6--4--3---|
E-4---4--4-2-4------------------------------------6|

G------------------------------------|
D------------------------------------|
A-----------------------------------4|
E-4---4--4-----1---1--1-----2--------|


verse: 0:25-0:51
G---------------------------------------------------|
D-------6--4---6--4---------------------------------|
A--------------------6--4------------2--4-----------|
E-4--4-------4--------------2--2--4--------1---2---3| x2

[ Tab from: http://www.guitartabs.cc/tabs/r/reel_big_fish/i_know_you_too_well_to_like_you_anymore_btab.html ]
G---------13--11----13--11-------------------------------------|
D---------------------------13---11------------9--11-----------|
A-11--11---------11-------------------9--9--11-------8---9---10|
E--------------------------------------------------------------| x2


0:51-0:57
G---------------------------------------------------------------------|
D---------15--13----15--13------------------13--11-----13--11---------|
A----------------15---------15--13-----------------13----------13--11-|
E-13--13----------------------------11--11----------------------------|

G----------------------------|
D-------11--9----11--9-------|
A-------------11--------11--9|
E-9--9-----------------------|


0:58-1:00
G-----------------------------|
D-----------------------------|
A-----------------------------|
E-1010101010101010101010101010|


[Repeat chorus]


[Repeat verse]


Bridge: 2:07-2:26
G----------------------------------------------------------------------|
D-3---------------------------------------------------------3----------|
A---------------------------4-------------------------6----------------|
E--------------6-------------------------3----------------------------6|


G-------------------------------------|
D-------------------------------------|
A-444444444444444466666666666666666666|
E-------------------------------------|


[Chorus part repeats through the guitar solo]


[Repeat verse]


[Repeat chorus]


[Verse part plays through the fight scene]


[repeat chorus]


So that's about it. My first tab, so sorry if there's any mistakes.
Comments