Reel Big Fish - Hungry Like The Wolf Chords & Tabs

 

Hungry Like The Wolf Chords & Tabs

Reel Big Fish Chords & Tabs

Version: 1 Type: Tab 0 ratings
1 star 2 stars 3 stars 4 stars 5 stars
comments

Hungry Like The Wolf Tab

   
-------------------------------------------------------------------------------
			     Hungry like the wolf (cover) - Reel Big Fish
-------------------------------------------------------------------------------
Originally By Duran Duran

By:Carl Barton

Standard Tuning
Ska Strumming
Listen for exact timing

Intro and Verse:
	E	     B	    A
e|----7-x-7-x-7--7-x-7-x-7--5-x-5-x-5----------------------------------------|
B|----9-x-9-x-9--7-x-7-x-7--5-x-5-x-5----------------------------------------|
G|----9-x-9-x-9--8-x-8-x-8--6-x-6-x-6----------------------------------------|
D|----9-x-9-x-9--9-x-9-x-9--7-x-7-x-7----------------------------------------|
A|----7-x-7-x-7--9-x-9-x-9--7-x-7-x-7----------------------------------------|
E|----7-x-7-x-7--7-x-7-x-7--5-x-5-x-5----------------------------------------|
[ Tab from: http://www.guitartabs.cc/tabs/r/reel_big_fish/hungry_like_the_wolf_tab.html ]
Pre Chorus:
	D	     B      E
e|----5-x-5-x-5--7-x-7--7-x-7-x-7--------------------------------------------|
B|----7-x-7-x-7--7-x-7--9-x-9-x-9--------------------------------------------|
G|----7-x-7-x-7--8-x-8--9-x-9-x-9--------------------------------------------|
D|----7-x-7-x-7--9-x-9--9-x-9-x-9--------------------------------------------|
A|----5-x-5-x-5--9-x-9--7-x-7-x-7--------------------------------------------|
E|----5-x-5-x-5--7-x-7--7-x-7-x-7--------------------------------------------|

Chorus:
	C	     G          C          C
e|----3-x-3-x-3--3-x-3-x-3--3-x-3-x-3--3-x-3-x-3-----------------------------|
B|----5-x-5-x-5--3-x-3-x-3--5-x-5-x-5--5-x-5-x-5-----------------------------|
G|----5-x-5-x-5--4-x-4-x-4--5-x-5-x-5--5-x-5-x-5-----------------------------|
D|----5-x-5-x-5--5-x-5-x-5--5-x-5-x-5--5-x-5-x-5-----------------------------|
A|----3-x-3-x-3--5-x-5-x-5--3-x-3-x-3--3-x-3-x-3-----------------------------|
E|----3-x-3-x-3--3-x-3-x-3--3-x-3-x-3--3-x-3-x-3-----------------------------|

	C	     G          C          D
e|----3-x-3-x-3--3-x-3-x-3--3-x-3-x-3--5-x-5-x-5-----------------------------|
B|----5-x-5-x-5--3-x-3-x-3--5-x-5-x-5--7-x-7-x-7-----------------------------|
G|----5-x-5-x-5--4-x-4-x-4--5-x-5-x-5--7-x-7-x-7-----------------------------|
D|----5-x-5-x-5--5-x-5-x-5--5-x-5-x-5--7-x-7-x-7-----------------------------|
A|----3-x-3-x-3--5-x-5-x-5--3-x-3-x-3--5-x-5-x-5-----------------------------|
E|----3-x-3-x-3--3-x-3-x-3--3-x-3-x-3--5-x-5-x-5-----------------------------|

===============================================================================
Comments