Reel Big Fish - Good Thing Chords & Tabs

 

Good Thing Chords & Tabs

Reel Big Fish Chords & Tabs

Version: 1 Type: Bass Tab 0 ratings
1 star 2 stars 3 stars 4 stars 5 stars
comments

Good Thing Bass Tab

RBF! w00t! Great song, fun song. Have fun.

Verse:
G--------------------------------
D--------------------------------
A--3--3---5-5-5----------2-3-5---
E---------------1--1---3---------

G--------------------------------
D----------------3--3---3/5-3-2-0
A--3--3--5-5-5-------------------
E--------------------------------
[ Tab from: http://www.guitartabs.cc/tabs/r/reel_big_fish/good_thing_btab.html ]
Chorus:
G---------------------------------------
D---------3-3---------------3-3-5-3-2---
A-3-3-5-5--------2-3-5--3-3-5-5--------5
E-------------3-------------------------

Bridge:
G-------------------
D--2-3-5-------33333
A3------------------
E-------3-11111-----


verse x7
bridge x1
chorus x2
verse x7
bridge x1
chorus x2
verse x7
bridge x1
chorus x6

drunk
Comments