Reel Big Fish - Fire Chords & Tabs

 

Fire Chords & Tabs

Reel Big Fish Chords & Tabs

Version: 1 Type: Bass Tab 0 ratings
1 star 2 stars 3 stars 4 stars 5 stars
comments

Fire Bass Tab

-----------------------------------------------------------------------------
                Bass Tab - The Fire - Reel Big Fish
-----------------------------------------------------------------------------

By:Joey Meeuwisse (rmdgs@hotmail.com)



	I'm kinda new at playing bass so i tought i'd give it a shot!
	Please rate me with this in the back of your head.


    / = Slide down
   
    \ = Slide up
==========================================================================



   Intro (enter at 3th time)

G|---------------------------------------------------------------------------|
D|---------------------------------------------------------------------------|
A|------------5\----5-5-5-3-3-3-5/-------------------------------------------|
E|5-5-5-3-3-3----------------------------------------------------------------|


   Verse
[ Tab from: http://www.guitartabs.cc/tabs/r/reel_big_fish/fire_btab.html ]
G|---------------------------------------------------------------------------|
D|---------------------------------------------------------------------------| 4x
A|------------5-5----------------5-------------------------------------------|
E|5-5-5-3-3-3--------5-5-5-3-3-3---------------------------------------------|
   
   Chorus

G|---------------------------------------------------------------------------|
D|-------------------4-7-4---------------------------------------------------| 4x
A|--4-7-4---2-5-2--5-------5-7-4-5-------------------------------------------|
E|5-------3------------------------------------------------------------------|


   Bridge

G|---------------------------------------------------------------------------|
D|-----------------------------------------------3-2-3-2-3-2-3-2-------------|
A|-2-2-2-5-5-5-----------------------2-2-2-5-5-5-----------------------------|
E|-------------3---3-3-3-3-3-3-2---------------------------------------------|


   Play Chorus 4 times

   Play Verse  4 times

   Play Chorus 4 times


   After that it changes a bit, I'll update when I found it out!

   Hope you learned something from this tab, any questions, I'm at rmdgs@hotmail.com
Comments