Reel Big Fish - Down In Flames Chords & Tabs

 

Down In Flames Chords & Tabs

Reel Big Fish Chords & Tabs

Version: 1 Type: Bass Tab 0 ratings
1 star 2 stars 3 stars 4 stars 5 stars
comments

Down In Flames Bass Tab

Artist: Reel Big Fish
Song: Down in Flames
Album: Why do they rock so hard?
Previously tabbed by: Jeff Lafleur
Correction by: Doug Brinkerhoff-BTA
The last tab was pretty good but it was incomplete.  This is the complete 
version

Intro
G/----------------------------------------------------------------------------
D/0-------2-------4-5-4---------2---------------------------------------------
A/----------------------------------------------------------------------------
E/----------------------------------------------------------------------------

Solo
G/----------------------------------------------------------------------------
D/----------------------------------------------------------------------------
A/5-5-555------------3-3-333--------------------------------------------------
E/------------7-7-777-----------3-3-333---------------------------------------

Verse part 1
G/--------------------------------------------------------------------------
D/--------7-5-4--------------------------------------5-5-4-4-2-2-0-0
A/5-5-5----------------------5---2-2-2-5-5-7-7----------------------
E-----------------3-3-3-5-7----------------------------------------------

Verse part 2
G/--------------------------------------------------------
D/00000000--------------00000000--------------
A/------------------------------------------00000000
E/--------------33333333----------------------------
[ Tab from: http://www.guitartabs.cc/tabs/r/reel_big_fish/down_in_flames_btab.html ]
Verse part 3
G/--------------------------------------------------------------
D/-----------------00--0000-00-----------------------------
A/--------------------------------------------------2*let ring
E/33--3333-33-----------------33-3333-33-------------

Chorus (ya, ya, I know it's the same as the verse...  But it's the "it's all 
right" part)
G/--------------------------------------------------------------------------
D/--------7-5-4--------------------------------------5-5-4-4-2-2-0-0
A/5-5-5----------------------5---2-2-2-5-5-7-7----------------------
E-----------------3-3-3-5-7----------------------------------------------

Funky Triplet part
G/-------6-7-9-14-9-7-6-----------------6-77-9  
D/9-8-9---------------------9-8-9-9-8-9--------
A/----------------------------------------------------
E/----------------------------------------------------

Bass solo (yep, same as the verse and the chorus again)
G/--------------------------------------------------------------------------
D/--------7-5-4--------------------------------------5-5-4-4-2-2-0-0
A/5-5-5----------------------5---2-2-2-5-5-7-7----------------------
E-----------------3-3-3-5-7----------------------------------------------

Post bass solo (I think this is right...)
G/-------------------------------------------
D/--------------------------------------------
A/---5------------------3-------------------
E/5----5-------------3---3----------------

That should be it...  I'm pretty confident about the accuracy, but if you 
find a mistake, E-mail me at Doug@Brinkerhoff.net.

Comments