Reel Big Fish - Dateless Loser Chords & Tabs

 

Dateless Loser Chords & Tabs

Reel Big Fish Chords & Tabs

Version: 1 Type: Tab 0 ratings
1 star 2 stars 3 stars 4 stars 5 stars
comments

Dateless Loser Tab

Reel Big Fish!
Dateless Losers
email---ryman1030@yahoo.com to comment
hope you enjoy!

standard in tuning

Intro

E|-2------3-2-3-2-3-5-------------------------------------|
B|---3----------------------------------------------------|
G|-----2---------------5-5-5--4---5-5-5-4-----------------|
D|------------------------------5-----------5-------------|
A|--------------------------------------------------------|
E|--------------------------------------------------------|

Interlude

E|-3-3-2--2-2--3--3-3--2--2-2--3--3-3--2-0---------------|
B|-------------------------------------------------------|
G|-------------------------------------------------------|
D|-------------------------------------------------------|
A|-------------------------------------------------------|
E|-------------------------------------------------------|

Verse (here you palm mute but occasionally play the chord)
Play each note quite a few times each your figure it out

E|---------------------------------------------------------|
B|---------------------------------------------------------|
G|-----5------5--------------------------------------------|
D|-5---5---5--5--3--7--3--5--------------------------------|
A|-5---3---5--3--3--7--3--5--------------------------------|
E|-3-------3-----1--5--1--3--------------------------------|

Pre-chorus

E|------------------------------|-------------------------|
B|------------------------------|-------------------------|
G|------------------------------|-------------------------|
D|------3-----3----------------|5--7-7-7-7-7--------------|
A|-0-3---1-3------------------|-5--7-7-7-7-7--------------|
E|---------------1(x4)------|--3--5-5-5-5-5--------------|



Chorus

E|-------------------------------------------------|
B|-------------------------------|-----------------|
G|-7-7---------------------------| 7---------------|
D|-7-7---7-7--5-5----------------- 7--9-9--7-------|
A|-5-5---7-7--5-5----------------|-5--9-9--7-------|
E|--------5-5--3-3--3-2-0-5(x3)-|----7-7--5-------|

Solo
[ Tab from: http://www.guitartabs.cc/tabs/r/reel_big_fish/dateless_loser_tab.html ]
E|----------17---------| -17b19-17b19-17b19-14h15p14------|
B|-15h19--------(x8)-- | ----------------------------15---|
G|---------------------|----------------------------------|
D|---------------------|----------------------------------|
A|---------------------|----------------------------------|
E|---------------------|----------------------------------|


E|---------------------------------------------------------|
B|-----15-----15-----15-----15-----15-----15-----15-----15-|
G|-14-----14-----14-----14-----12-----12-----12-----12-----|
D|---------------------------------------------------------|
A|---------------------------------------------------------|
E|---------------------------------------------------------|


E|-------------------------------------------------------------------------|
B|-----15-----15-----15-----15--------------11h12h14-------------11h12h14--|
G|-11-----11-----11-----11-----12h14h16-------------12h14h16---------------|
D|-------------------------------------------------------------------------|
A|-------------------------------------------------------------------------|
E|-------------------------------------------------------------------------|


E|-----------------|-----------------------------------|
B|-----------------|-----------------------------------|
G|-12-12-11-9----- |-----------------------------------|
D|------------12-  |-12p7p4(x8)------------------------|
A|-----------------|-----------------------------------|
E|-----------------|-----------------------------------|


E|-22-20-19-17-20-19-17-15-17p10p7-15p10p7-14p10p7-15p10p7---|
B|-----------------------------------------------------------|
G|-----------------------------------------------------------|
D|-----------------------------------------------------------|
A|-----------------------------------------------------------|
E|-----------------------------------------------------------|

Outro

E|-16-16-14-14-12-12-14-16-12-19p17p16-------------------|
B|-------------------------------------17----------------|(x3)
G|-------------------------------------------------------|
D|-------------------------------------------------------|
A|-------------------------------------------------------|
E|-------------------------------------------------------|


E|-19-19-16-17-14----------------------------------------|
B|-------------------------------------------------------|
G|-------------------------------------------------------|
D|-------------------------------------------------------|
A|-------------------------------------------------------|
E|-------------------------------------------------------|
Comments