Reel Big Fish - Brown Eyed Girl Chords & Tabs

 

Brown Eyed Girl Chords & Tabs

Reel Big Fish Chords & Tabs

Version: 1 Type: Bass Tab 0 ratings
1 star 2 stars 3 stars 4 stars 5 stars
comments

Brown Eyed Girl Bass Tab

~=Let Ring p=pull h=hammer

  *Intro
G|---------------------------------------------------------------|
D|-----------------------4-7-4--------------------------4-7~-----|
A|-------2-3------4-5-----------------2-3---------4-5------------|
E|--3----------3-------------------3---------2-3-----------------|

  *Verse's                                   | You My Brown Eyed Girl prt. |
 |----------------x6---------------|-----------------x2--------------------|
G|---------------------------------|---------------------------------------|
D|------------24-----------4-7-4---|-------5-2-----7-4---------------------|
A|-----22-33-------22--5-----------|---33------55-----------222------2-----|
E|--33-----------33----------------|---------------------33--------00------|
[ Tab from: http://www.guitartabs.cc/tabs/r/reel_big_fish/brown_eyed_girl_btab.html ]
   |Sha la la la la la la la te da prt|
G|----------------------------------------------------------------|
D|-------------4-5-------------------------4-5--------------------|
A|------2-3----------4-5--32----2-3-----------4-5--32-------------|
E|--3---------------------------3----------------------------3----|

  *Verse's                                   | You My Brown Eyed Girl prt. |
 |----------------x6---------------|-----------------x2--------------------|
G|---------------------------------|---------------------------------------|
D|------------24-----------4-7-4---|-------5-2-----7-4---------------------|
A|-----22-33-------22--5-----------|---33------55-----------222------2-----|
E|--33-----------33----------------|---------------------33--------00------|

 *Solo  (Slap and Pop, for best results =P )
G|-----------------------------------------------------------------0h5-5h7---|
D|-------0h5-------------------------------------0h5-0h5---------------------|
A|-------------5p33-2--------------------------------------5p3---------------|
E|--5p3-----------------5p3---0-0-1h3---5p3----------------------------------|


G|--------------------------------|
D|--------0h3-0h3-----------------|
A|-------------------5-3-2--------|
E|--5p3--------------------5-3----|
Comments