Reel Big Fish - Brand New Hero Chords & Tabs

 

Brand New Hero Chords & Tabs

Reel Big Fish Chords & Tabs

Version: 2 Type: Tab 0 ratings
1 star 2 stars 3 stars 4 stars 5 stars
comments

Brand New Hero Tab

   
Reel Big Fish - Brand New Hero
Tabbed By: Bert
EMail: loser_guitarist@hotmail.com
album: Cheer Up!

intro/verse: clean, palm muted
E:-----------------|----------------|----------------|
B:-----------------|----------------|----------------|
G:-----------------|----------------|----------------|
D:-6---6---6---6---|6---6---6---6---|----------------|
A:-4-4-4-4-4-4-4-4-|3-3-3-3-3-3-3-3-|4---4---4---4-4-|
E:-----------------|----------------|2-2-2-2-2-2-2-2-|repeat bar
   1 + 2 + 3 + 4 + |1 + 2 + 3 + 4 + |1 + 2 + 3 + 4 + |

pre-chorus: F#  F#  G#  G#

chorus: distorted
E:-----------------|----------------|----------------|----------------|
B:-----------------|----------------|----------------|----------------|
G:-----------------|----------------|----------------|----------------|
D:-6---6---6-6-6-6-|6---6---6-6-6-6-|11--11--11--11--|4---4---6-6-6-6-|
A:-4---4---4-4-4-4-|3---3---3-3-3-3-|9---9---9---9---|4---4---6-6-6-6-|
E:-----------------|----------------|----------------|2---2---4-4-4-4-|
   1 + 2 + 3 + 4 + |1 + 2 + 3 + 4 + |1 + 2 + 3 + 4 + |1 + 2 + 3 + 4 + |

that's it for the rhythm.
the solo is 2 guitars playing separate parts, but the following tab 
covers the melody and sounds good with the song, so it's all you need 
if you're the only guitarist.

pickup:
E:-----------------|
B:-7---6---4---6---|
G:-----------------|
D:-----------------|
A:-----------------|
E:-----------------|
   1 + 2 + 3 + 4 + |
[ Tab from: http://www.guitartabs.cc/tabs/r/reel_big_fish/brand_new_hero_tab_ver_2.html ]
E:-----------------|----------------|----------------|play pickup
B:-----------------|----------------|----------------|then
G:-6---------------|5-------------56|4---------------|repeat
D:-----------------|----------------|----------------|then
A:-----------------|----------------|----------------|pickup again
E:-----------------|----------------|----------------|
   1 + 2 + 3 + 4 + |1 + 2 + 3 + 4 + |1 + 2 + 3 + 4 + |

E:-----------------|----------------|----------------|----------------|
B:---4-6-7-9-------|--4-6-7-9-------|11----9-----7---|7---------------|
G:-6---------------|6---------------|----------------|----------------|
D:-----------------|----------------|----------------|----------------|
A:-----------------|----------------|----------------|----------------|
E:-----------------|----------------|----------------|----------------|
   1 + 2 + 3 + 4 + |1 + 2 + 3 + 4 + |1 + 2 + 3 + 4 + |1 + 2 + 3 + 4 + |

E:-----------------|----------------|----------------|----------------|
B:---4-6-7-9-------|--4-6-7-9-------|10----9-----7---|16*-------------|
G:-6---------------|6---------------|----------------|----------------|
D:-----------------|----------------|----------------|----------------|
A:-----------------|----------------|----------------|----------------|
E:-----------------|----------------|----------------|----------------|
   1 + 2 + 3 + 4 + |1 + 2 + 3 + 4 + |1 + 2 + 3 + 4 + |1 + 2 + 3 + 4 + |

*either 16 or 18, i don't remember which, but i'm pretty sure it's 16

i didn't figure out the part for the bridge ("always talking but...")
but it's probably a chord progression close to the verse or chorus
Comments