Reel Big Fish - Brand New Hero Chords & Tabs

 

Brand New Hero Chords & Tabs

Reel Big Fish Chords & Tabs

Version: 1 Type: Bass Tab 0 ratings
1 star 2 stars 3 stars 4 stars 5 stars
comments

Brand New Hero Bass Tab

   
Normal Tuning
s=slap
p=pop

Intro
G----------------------------------------------------------------------------------|
D-----------------------------------------------------------------5555555555555555-|
A----------------------------------------------------------------------------------|
E-3333333333333333333333333333333333333333333333333333333333333333-----------------|

G----------------------------------------------------------------------------------|
D-5555555555555555--------111-----------333-----------111------------333-----------|
A-----------------------------0000----------1100----------0000-----------1100------|
E------------------333333----------3333----------3333----------3333-----------3333-|

G----------------------------------|
D--------------------------------3-|
A--------------------------101-35--|
E-3333-3333-3333-3333-3333---------|

Main Riff
G-------------------------------------------------------------|
D-33-------------------------------33-------------------------|
A----53-------333-------35-----333----53--------333----5----3-|
E------53-333-----11-35----333-----------53-333-----11---53---|
[ Tab from: http://www.guitartabs.cc/tabs/r/reel_big_fish/brand_new_hero_btab.html ]
Verse
G-------57-775--------------------------57775-----------------------5-5------------|
D-33-57--------75-3-------------0233-57-------75-3-----------------3-3---7-7-------|
A------------------------023333--------------------------0-2-310--------5-5--------|
E-------------------3333----------------------------3333---------3-----------33333-|

G--------5-5------------------|
D-----233-3---7-7-------------|
A-3333-------5-5-------33-555-|
E-----------------3333--------|

Chorus
G-------------------------------------------------------|
D----------------------------------------------------3--|
A-1111-1111-1111----333-1111-1111-1111--------101-35----|
E----------------33--------------------333333-----------|

Interlude
G---------------------------------------|
D---------------------------------------|
A-0-5-1-110-33-0-0-5-1-3333333333333333-|
E---------------------------------------|

Bridge
G----3--------3------3---------3-----------------------------------------------------|
D----------------------------------11------------33------------11--------------------|
A------11-------1------111-------1-----------------111-0000000-----------------------|
E-11------11------11-------11---------44433333--------------------444333-333-333-333-|

G-----------|
D--------3--|
A-101-35----|
E-----------|
Comments