Reel Big Fish - Ban The Tubetop Chords & Tabs

 

Ban The Tubetop Chords & Tabs

Reel Big Fish Chords & Tabs

Version: 1 Type: Tab 0 ratings
1 star 2 stars 3 stars 4 stars 5 stars
comments

Ban The Tubetop Tab

Reel Big Fish Ban the tube top
From the album Cheer up (I think)
Tabbed by Liam
Email: guitar_rocker_47@hotmail.com
Tuning Standard
^ = Bend up
x = scratch

Intro
e|-----------------------------------------------------------------------------|
B|-----------------------------------------------------------------------------|
G|--7-7------7-7---------------------------------------------------------------|  
D|-----------------------------4--------5------6-------------------------------| x6 
A|-------5---------5\2---------------------------------------------------------|
E|--------------------------2-----3--------3-----------------------------------|

Verse
e|-----------------------------------------------------------------------------|
B|-----------------------------------------------------------------------------|
G|-7^---------------------7^--------------------7^--------------------7^-------|  
D|-7^---x-x-4----x-x-5----7^---x-x-4----x-x-5---7^---x-x-4----x-x-5---7^--x-x--|  
A|-5^---x-x-4----x-x-5----5^---x-x-4----x-x-5---5^---x-x-4----x-x-5---5^--x-x--|
E|------x-x-2----x-x-3---------x-x-2----x-x-3--------x-x-2----x-x-3-------x-x--|

e|-----------------------------------------------------------------------------|
B|-----------------------------------------------------------------------------|
G|-----------------------------------------------------------------------------|  
D|-4----x-x-5------------------------------------------------------------------|  
A|-4----x-x-5------------------------------------------------------------------|
E|-2----x-x-3------------------------------------------------------------------|

Chorus
e|-----------------------------------------------------------------------------|
B|-----------------------------------------------------------------------------|
G|-7-7-7-7---------------------------------------7-7-7-7-----------------------|  
D|-7-7-7-7--7-7-7-7--9-9-9-9--5-5-5-5--7-7-7-7---7-7-7-7--7-7-7-7--9-9-9-9-----|  
A|-5-5-5-5--7-7-7-7--9-9-9-9--5-5-5-5--7-7-7-7---5-5-5-5--7-7-7-7--9-9-9-9-----|
E|----------5-5-5-5--7-7-7-7--3-3-3-3--5-5-5-5------------5-5-5-5--7-7-7-7-----|
[ Tab from: http://www.guitartabs.cc/tabs/r/reel_big_fish/ban_the_tubetop_tab.html ]
(palm mute these chords)
e|-----------------------------------------------------------------------------|
B|-----------------------------------------------------------------------------|
G|-----------------------------------------------------------------------------|  
D|-4-4-4-4--5-5-5-5--7-7-7-7---------------------------------------------------|  
A|-4-4-4-4--5-5-5-5--7-7-7-7---------------------------------------------------|
E|-2-2-2-2--3-3-3-3--5-5-5-5---------------------------------------------------|

Bridge
e|-----------------------------------------------------------------------------|
B|---------------------------------8-7-8-7-------------------------------------|
G|----------7-7----------------------------7b-----------------7-7-7-7-7-7------|  
D|-5-5--7-7-7-7--7-7--5-5-5-5-5-5--------------5-5--7-7--4-4--7-7-7-7-7-7------|  
A|-5-5--7-7-5-5--7-7--5-5-5-5-5-5--------------5-5--7-7--4-4--5-5-5-5-5-5------|
E|-3-3--5-5------5-5--3-3-3-3-3-3--------------3-3--5-5--2-2-------------------|
PM                                                            ***********

Interlude (played alongside with Trumpet thing or whatever that instrument is.)
e|------------------------------15------14-------12------------17b19--17b19----|
B|-10b-1210b-12-----------------------------------------15--------------------|
G|----------------9b-11--7-9-7------12------12-------12------12----------------|  
D|---------------------------------------------------------------12------------|  
A|-----------------------------------------------------------------------------|
E|-----------------------------------------------------------------------------|

When you play these just place you thing slightly on the string (I think it's called
A harmonic (hope that helps)
e|----7------7-----------------------------------------------------------------|
B|-------7-------9-------------------------------------------------------------|
G|-7---------------------------------------------------------------------------|  
D|-----------------------------------------------------------------------------|  
A|-----------------------------------------------------------------------------|
E|-----------------------------------------------------------------------------|

Order

Intro
Verse
Chorus
Intro
Verse
Chorus
Bridge
Interlude
Chorus x2

Rate this, if you like it, THANKS!
Comments